PrimaNota.ru - самый крупный в мире бесплатный архив песенных текстов, аккордов, табулатур и нот


Persiana Jones - Io Con Te - таба, видео

Регистрация Запомнить меня
Войти через:  Facebook Google Twitter Vk Yandex Mail.ru

Persiana Jones - Io Con Te - таба, видео

Печатать
Просмотров: 120
		   Persiana Jones Ska-Core since 1988

PERSIANA JONES - IO CON TE
(Puerto Hurraco - Uaz Records)


Intro

     D             A            Bm                 G
E|---------------------------------------------------------------
B|---------------------------------------------------------------
G|---------------------------------------------------------------
D|-----7---7---7---7--5-4-2-0-2---4---4---4---4--2-0-------------
A|---5---5---5---5--------------2---2---2---2--------------------
E|---------------------------------------------------------------


Riff (x2)

     D          A        Bm        G
E|---------------------------------------------------------------
B|-----7-----------------7-7-------------------------------------
G|---7----7-----9-6----------7-4---7-4---------------------------
D|----------7-------7------------------5-------------------------
A|---------------------------------------------------------------
E|---------------------------------------------------------------


Strofa (Pulito)
D		    A			Bm	   G		       D
Ho Aspettato interi anni un segnale da te               Non è arrivato mai!
D		    	   A			 Bm   G
Passano i giorni un chiodo fisso nella testa per me     Averti Sempre!


Bridge (Distorto)
D			A
Adesso tu mi cerchi  aspetti una risposta
 Bm				G
aspetti con speranza e non ti arriverà mai
D		A
Ora è così  soffrire non mi va
    Bm			G
tra un mese come prima tutto tornerà


Riff (x2)


Strofa
Mille Progetti ambiziosi da divider con te             Non ci riuscivo mai!
A speranza di averti in esclusiva per me              Non mi ha fermato!

Bridge
Adesso tu mi cerchi  aspetti una risposta
aspetti con speranza e non ti arriverà mai
Ora è così  soffrire non mi va
tra un mese come prima tutto tornerà


RIT
G	A	   D  F#m
Adesso rido io con te
G	   A	      D  F#m
Puoi stare male anche tu
G	A	   D  F#m
Adesso rido io con te
G	   A
Puoi stare male


Assolo

     D	     A       Bm     G     D	  A   Bm     G
E|------------------------------------------------------
B|---7---5---5-7-5------------------5-5-7-5-------------
G|---------7---------7--6---------7-----------7-6-------
D|------------------------7-9---------------------7-9---
A|------------------------------------------------------
E|------------------------------------------------------

    D     A   Bm	    G		  D		     A		Bm	       G
E|-------------------------------------------------------------------------------------10----
B|------------------------------------------------------------10v-------12-12-12-10-12-------
G|----------------------------------------11-11-11-11-11-9-11----11-9------------------------
D|--7---9------------------------------------------------------------------------------------
A|--------7---9-9-10-10-9-9-7-7-9-7-9--------------------------------------------------------
E|------------------------------------10-----------------------------------------------------


RIT
Adesso rido io con te
PuoI stare male anche tu
Adesso rido io con te
Puoi stare male

Riff (x2)

RIT
Adesso rido io con te
Puoi stare male anche tu
Adesso rido io con te
Puoi stare male

D  A  Bm  G  A D



22:25 6 Jan 2003
thanx to [Marco.M]
marco182@libero.it
	     
Добавлено: 27.08.2013
Вам также может быть интересно:
Другие материалы по этой песне:
  • Аккорды и текст

Страница создана 27.08.2013
http://primanota.ru/persiana-jones/io-con-te-chords.htm
Привет, Гость.
Предлагаем пройти революционный курс по гитаре.
Подарок от PrimaNota.Ru, забирай!