PrimaNota.ru - самый крупный в мире бесплатный архив песенных текстов, аккордов, табулатур и нот


Persefone - The Wind Book - таба, видео

Регистрация Запомнить меня
Войти через:  Facebook Google Twitter Vk Yandex Mail.ru

Persefone - The Wind Book - таба, видео

Печатать
Просмотров: 28
My first tab, like ever.
It's the first solo part and the main riff of Persefone's The Wind Book.

~ = vibrato (actually completely optional)
\ / = slide downwards/upwards
b/sb = bend/start in bend
h = hammer on
p = pull-off
x = silenced tone

Chords (As I'm not that good with chords, there may be mistakes. Hell, making out the chords on a guitar from piano by ear, is hard.)

|Gm|Bb|Gm|Bb|Gm|Bb|Csus2|Csus2 D#dim7|Gm|D#sus2|F|Dm7 D#dim7|Gm|Dm D#sus2|Dm D#sus2|Dm7 D#sus2|Csus2|Dm7 D#dim7|

e|-------------------------------------------------------------------------------------------------------|
B|-------11--11---11---11-------------8---------6--------------------------------------------------------|
G|--\12---12---12---12---12~~~-----\7--7~----\5--5~------/3-3h5------------------------------------------|
D|--------------------------------------------------------------------3h5-3~(3)\-------------------------|
A|-------------------------------------------------------------------------------------------------------|
E|-------------------------------------------------------------------------------------------------------|

 
e|------------6---------6--------------------------------------------------------------------------------|
B|--/3--6--8----6--6h8-----6--6h8~~~---------------------------------------------------------------------|
G|-------------------------------------------------------------------------------------------------------|
D|-------------------------------------------------------------------------------------------------------|
A|-------------------------------------------------------------------------------------------------------|
E|-------------------------------------------------------------------------------------------------------|

 
e|-------------------------------------------------------------------------------------------------------|
B|-------------------------------------------------------------------------------------------------------|
G|-x-6sb5--3-3-3h5~--------------------------------------------------------------------------------------|
D|--------------------------3h5-3~-----------------------------------------------------------------------|
A|-------------------------------------------------------------------------------------------------------|
E|-------------------------------------------------------------------------------------------------------|

 
e|--/3-6-3---------------6\2~----------------------------------------------------------------------------|
B|-------------6p3~------------------3h4-3---------------------------------------------------------------|
G|---------------------------------------------------3-3h5--5/7--5--5\3----------------------------------|
D|-------------------------------------------------------------------------------------------------------|
A|-------------------------------------------------------------------------------------------------------|
E|-------------------------------------------------------------------------------------------------------|

 
e|-------6--8b10--8--6p5---------------------------------------------------------------------------------|
B|--/8-------------------6-6/8-8\3~----------------------------------------------------------------------|
G|-------------------------------------------------------------------------------------------------------|
D|-------------------------------------------------------------------------------------------------------|
A|-------------------------------------------------------------------------------------------------------|
E|-------------------------------------------------------------------------------------------------------|

This section was really hard to figure out at first, there really aren't any time sequences or anything
to listen after, you just have to play it and end on the 3rd thread on the G-string on time.
It goes pretty fast.
e|-------------------------------------------------------------------------------------------------------|
B|-------------------------------------------------------------------------------------------------------|
G|------3-5-3-5b6--5p3h5~--3h5p3---3h5p3---3-------------------3-5-5/7-3---------------------------------|
D|--/5---------------------------5-------5---5-3-----------3h5-------------------------------------------|
A|-----------------------------------------------5\3p1-3/5-----------------------------------------------|
E|-------------------------------------------------------------------------------------------------------|

 
e|--/6-5------5h6-5---8--8/10-6~--5b6-5------------------------------------------------------------------|
B|--------6~--------6-------------------6-6/8------------------------------------------------------------|
G|--------------------------------------------7~~~-------------------------------------------------------|
D|-------------------------------------------------------------------------------------------------------|
A|-------------------------------------------------------------------------------------------------------|
E|-------------------------------------------------------------------------------------------------------|

The pull-off on the A-string in this section is a lot faster than you think, just to fit the time sequence.
So the pull-off and the tone on the 6th thread on the E-string is somehow connected,
like they are played with the same amount of time inbetween. That being said, I'm not 
actually sure there is
a pull-off, it just sounds like there are, and it sounds a lot better.
e|-------------------------------------------------------------------------------------------------------|
B|-------------------------------------------------------------------------------------------------------|
G|--3----3---5b7-5p3----------------------5~-3-----------------------------------------------------------|
D|--3h5----3---------5p3------------3h5p3------4~~~------------------------------------------------------|
A|-----------------------5p3---3h5~----------------------------------------------------------------------|
E|---------------------------6---------------------------------------------------------------------------|

Main Riff

e|--------------------------------------------6----------------------------------------------------------|
B|------------------3-------------6-----8------10p6------------------------------------------------------|
G|-------------3---5-5-----3---3---------8---------------------------------------------------------------|
D|----5---3---5---5---5---3---3-----8-----8---------8----------------------------------------------------|
A|---5---3---5---3-----3-1--------5-----6-----6----------------------------------------------------------|
E|--3---6--------------------3---------------------------------------------------------------------------|

Repeat this four times.

e|-----------------1--------------------1----------------------------------------------------------------|
B|----3---3---1---1-1-1---3-3--3--1----1-1-1-------------------------------------------------------------|
G|---3---3---2---2---2-----3--3--3----3---3--------------------------------------------------------------|
D|--5---4---3---3---------1--1---------------------------------------------------------------------------|
A|--------------------------------3--3-------------------------------------------------------------------|
E|-------------------------------------------------------------------------------------------------------|


e|-------1-----------------------------------------------------------------------------------------------|
B|--------1----------------------------------------------------------------------------------------------|
G|----2h3--3---------------------------------------------------------------------------------------------|
D|---0---------------------------------------------------------------------------------------------------|
A|-------------------------------------------------------------------------------------------------------|
E|--3----------------------------------------------------------------------------------------------------|
Добавлено: 29.12.2015
Другие материалы по этой песне:
  • Аккорды и текст

Страница создана 29.12.2015
http://primanota.ru/persefone/wind-book-chords.htm
Привет, Гость.
Предлагаем пройти революционный курс по гитаре.
Подарок от PrimaNota.Ru, забирай!