PrimaNota.ru - самый крупный в мире бесплатный архив песенных текстов, аккордов, табулатур и нот


Perry Como - ( There's No Place Like ) Home For The Holidays - текст песни, таба, видео

Регистрация Запомнить меня
Войти через:  Facebook Google Twitter Vk Yandex Mail.ru

Perry Como - ( There's No Place Like ) Home For The Holidays - текст песни, таба, видео

Печатать
Просмотров: 57
-------------------------------------------------------------------------------
                             There's No Place Like Home For The Holiday - Perry Como
-------------------------------------------------------------------------------
Based off Youtube Cover :
https://www.youtube.com/watch?v=yHDgzQ6eQw4
Channel: https://www.youtube.com/user/verycoolsound

MAKE SURE TO RATE THE TAB AND FOLLOW THE YOUTUBER CHANNEL IF YOU FIND IT HELPFUL!! ENJOY <3

Tuning:Standard Tuning 
No capo

Tuning:Standard

e|----------------3--2--0----------|----------------0-------------|
B|-0--1--3--0--------------3--1--0-|-------0-----0-----3--1--0----|
G|-------------0-------------------|-0--2-----3-----------------2-|
D|---------------------------------|------------------------------|
A|---------------------------------|------------------------------|
E|---------------------------------|------------------------------|
Oh, there's no place like home for the holidays| Cause no matter how far away you roam

e|----------------5--3--2--0---3-------|-5--3--2-----0-------------------|
B|-0--1--3--0---------------------0--3-|----------3-----1--3--0--1-------|
G|-------------0-----------------------|----------------------------2--0-|
D|-------------------------------------|---------------------------------|
A|-------------------------------------|---------------------------------|
E|-------------------------------------|---------------------------------|
When you pine for the sunshine of a friendly gaze| For the holidays, you cant beat home, sweet home

e|----------0--3--3--3--5--3--3-|-5--3--3--3-------|-------------------0-------------|
B|----1--3----------------------|-------------5--3-|-0--1--3--3--2--3-----3--1--0----|
G|-0----------------------------|------------------|-------------------------------2-|
D|------------------------------|------------------|---------------------------------|
A|------------------------------|------------------|---------------------------------|
E|------------------------------|------------------|---------------------------------|
I met a man who lives in Tennessee| He was headin' for| Pennsylvania and some home made pumpkin pie

e|----------0--3--3--3--5--3--3-|-5--3--3--3--3--3----|------------------------------------|
B|----1--3----------------------|-------------------3-|---------------------------|
G|-0----------------------------|---------------------|-------------------------|
D|------------------------------|---------------------|------------------------|
A|------------------------------|---------------------|------------------------|
E|------------------------------|---------------------|------------------------|
From Pennsylvania, folks are travelin| Down to Dixies sunny shore

e|----0--2--5--5--7--5--3-|-2--0-----------0-------|
B|-3----------------------|-------3--3--3-----3----|
G|------------------------|----------------------4-|
D|------------------------|------------------------|
A|------------------------|------------------------|
E|------------------------|------------------------|
From Atlantic to Pacific| Gee, the traffic is terrific

e|----------------3--2--0----------|----------------0-------------|
B|-0--1--3--0--------------3--1--0-|-------0-----0-----3--1--0----|
G|-------------0-------------------|-0--2-----3-----------------2-|
D|---------------------------------|------------------------------|
A|---------------------------------|------------------------------|
E|---------------------------------|------------------------------|
Oh, there's no place like home for the holidays| Cause no matter how far away you roam

e|----------------5--3--2--0--3-------|-5--3--2-----0-------------------|
B|-0--1--3--0--------------------0--3-|----------3-----1--3--0--1-------|
G|-------------0----------------------|----------------------------2--0-|
D|------------------------------------|---------------------------------|
A|------------------------------------|---------------------------------|
E|------------------------------------|---------------------------------|
If you want to be happy in a million ways| For the holidays, you cant beat home, sweet home

e|----------------3--2--0-----0----------|-------------------0-----2-----3-|
B|-0--1--3--0--------------3-----3--1--0-|-0--1--3--3--2--3-----3-----3----|
G|-------------0-------------------------|---------------------------------|
D|---------------------------------------|---------------------------------|
A|---------------------------------------|---------------------------------|
E|---------------------------------------|---------------------------------|
Take a bus, take a train, go and hop an airplane| Put the wife and kiddies in the family car

e|-0--2--3--3--3--3--3|-2--0-----0----------|----------0--2--3-|
B|--------------------|-------3-----3--1----|-3--3--3----------|
G|--------------------|-------------------4-|------------------|
D|--------------------|---------------------|------------------|
A|--------------------|---------------------|------------------|
E|--------------------|---------------------|------------------|
For the pleasure that you bring| when you make that doorbell ring| No trip could be too far

e|----------0--3--3--3--5--3--3-|-5--3--3--3-------|-------------------0-------------|
B|----1--3----------------------|-------------5--3-|-0--1--3--3--2--3-----3--1--0----|
G|-0----------------------------|------------------|-------------------------------2-|
D|------------------------------|------------------|---------------------------------|
A|------------------------------|------------------|---------------------------------|
E|------------------------------|------------------|---------------------------------|
I met a man who lives in Tennessee| He was headin' for| Pennsylvania and some home made pumpkin pie

e|----------0--3--3--3--5--3--3-|-5--3--3--3--3--3----|------------------------------------|
B|----1--3----------------------|-------------------3-|---------------------------|
G|-0----------------------------|---------------------|-------------------------|
D|------------------------------|---------------------|------------------------|
A|------------------------------|---------------------|------------------------|
E|------------------------------|---------------------|------------------------|
From Pennsylvania, folks are travelin| Down to Dixies sunny shore

e|----0--2--5--5--7--5--3-|-2--0-----------0-------|
B|-3----------------------|-------3--3--3-----3----|
G|------------------------|----------------------4-|
D|------------------------|------------------------|
A|------------------------|------------------------|
E|------------------------|------------------------|
From Atlantic to Pacific| Gee, the traffic is terrific

e|----------------3--2--0----------|----------------0-------------|
B|-0--1--3--0--------------3--1--0-|-------0-----0-----3--1--0----|
G|-------------0-------------------|-0--2-----3-----------------2-|
D|---------------------------------|------------------------------|
A|---------------------------------|------------------------------|
E|---------------------------------|------------------------------|
Oh, there's no place like home for the holidays| Cause no matter how far away you roam

e|----------------5--3--2--0---3-------|-5--3--2-----0-------------------|
B|-0--1--3--0---------------------0--3-|----------3-----1--3--0--1-------|
G|-------------0-----------------------|----------------------------2--0-|
D|-------------------------------------|---------------------------------|
A|-------------------------------------|---------------------------------|
E|-------------------------------------|---------------------------------|
If you want to be happy in a million ways| For the holidays, you cant beat home, sweet home

e|----------------5--3--2--0---3-------|-5--3--2-----0-------------------|
B|-0--1--3--0---------------------0--3-|----------3-----1--3--0--1-------|
G|-------------0-----------------------|----------------------------2--0-|
D|-------------------------------------|---------------------------------|
A|-------------------------------------|---------------------------------|
E|-------------------------------------|---------------------------------|
If you want to be happy in a million ways| For the holidays, you cant beat home, sweet home



************************************

| /   slide up
| \   slide down
| h   hammer-on
| p   pull-off
| ~   vibrato
| +   harmonic
| x   Mute note
| b   Bend
| pb  Pre-bend
| br  Bend release
| pbr Pre-bend release
| brb Bend release bend

************************************
Добавлено: 18.03.2016
Вам также может быть интересно:
Другие материалы по этой песне:
  • Аккорды и текст

Страница создана 10.01.2014
http://primanota.ru/perry-como/-theres-no-place-like-home-for-the-holidays-chords.htm
Привет, Гость.
Предлагаем пройти революционный курс по гитаре.
Подарок от PrimaNota.Ru, забирай!