PrimaNota.ru - самый крупный в мире бесплатный архив песенных текстов, аккордов, табулатур и нот


Perpetual Groove - Teakwood Betz - таба, бас-таба, видео

Регистрация Запомнить меня
Войти через:  Facebook Google Twitter Vk Yandex Mail.ru

Perpetual Groove - Teakwood Betz - таба, бас-таба, видео

Печатать
Просмотров: 134
Уроки эстрадного вокала в Санкт-Петербурге
Teakwood Betz
Prepetual Groove

Tabbed by:Rich

This tab isnt exact but he mainly just uses arpegios and triads for alot of the stuff.  
than that just improv off of the stuff i have tabbed out.  And if you have a better 
post it.

(With Delay)
----------------------------------------X--------|
-12-10----------------------------------X--------|
-------9—X4-----------------------------X--------|
----------------------------------------X-X3-----|
-----------------9--------12---------7--X--------|
-------------7-7--7--10-10---10--5-5--5-X--------|

---------------------------------------------------|
---------------------12-14-14-15-15-14/------------|
---------------------------------------------------|
---------------------------------------------------|
-----9---------12---------------------------9—x4---|
-7-7--7--10-10---10---------------------7-7--7-----|

(a little off)
--2-----2-----2h3p2-----2h3p2-----2h3p2-------|
--3h5p2------3----3----3----3----3----3----3--|
-4-------4---2------2-2-------2-2-------2-2---|x4
----------------------------------------------|
----------------------------------------------|
----------------------------------------------|

-9---------------9h10p9--------9h10p9--------9h10p9------|
-10h12p10-10-----10----10------10----10-----10-----10----|
-11---------11---9-------9-9---9-------9-9--9--------9-9-|x7
---------------------------------------------------------|
---------------------------------------------------------|
---------------------------------------------------------|

-9--------------10-9--10-9--9-9-9-10-10-10-9/x-----------|
-10h12p10-10--10----10-----------------------------------|
-11------------------------------------------------------|
---------------------------------------------------------|
---------------------------------------------------------|
---------------------------------------------------------|

---------------------------------------------------------|
---------------------------------------------------------|
---------------------------------------------------------|
---------------------------------------------------------|
-----9----------9----------9---------9-------------------|
-7-7--7-----7-7---7----7-7--7----7-7--7------------------|

----------------------------------------    -x-|
----------------------------------------    -x-|
----------------------------------------    -x-|
-----7-------7-------7------------------X4  -x-|
--7h9-9---7h9-9—--7h9-9--77777777-------    -x-|
-7-------7-------7----------------------    -x-|
fade in and out
------------------------------------|
---------15-14--10--12-12-----------|
-14--16-----------------------------|
------------------------------------|
------------------------------------|
…………………………Palm Muted………………………………………
-------------------------------------------------|
-15-15-14-14-------------------------------------|
-------------14-14-11-11-x3----------------------|X2
----------------------------14-14-14-14-14-14----|
-------------------------------------------------|
-------------------------------------------------|
                tremmle pick
------------------------------------|
-/7—--7h9-7-4----4------------------|
------------------------------------|
------------------------------------|
------------------------------------|
------------------------------------|

---------------------------------------------------|
---------------------------------------------------|
-7-7-7-7-------------------------------------------|
---------7-5^-4---4-2-2-0------4-2-2-0-0-----------|
-------------------------0-2------------0-2-22222--|
---------------------------------------------------|

------------------------------------|
------------------------------------|
------------------2-3-4^------------|
-4-2-2-2-0-0---0-2------------------|
------------0-2---------------------|
------------------------------------|

…………………………Palm Muted………………………………………
-------------------------------------------------|
-15-15-14-14-------------------------------------|
-------------14-14-11-11-x3----------------------|X4
----------------------------14-14-14-14-14-14----|
-------------------------------------------------|
-------------------------------------------------|

------------------------------------------------|
------------------------------------------------|
-9h11-9-9-7-7-----------------------------------|
-------------7-7h9------------------------------|
------------------------------------------------|
------------------------------------------------|
IMPROV the rest
Добавлено: 30.05.2012
Другие материалы по этой песне:
  • Аккорды и текст

Страница создана 03.03.2012
http://primanota.ru/perpetual-groove/teakwood-betz-chords.htm
Привет, Гость.
Предлагаем пройти революционный курс по гитаре.
Подарок от PrimaNota.Ru, забирай!