PrimaNota.ru - самый крупный в мире бесплатный архив песенных текстов, аккордов, табулатур и нот


Perma - Wishbone - таба, видео

Регистрация Запомнить меня
Войти через:  Facebook Google Twitter Vk Yandex Mail.ru

Perma - Wishbone - таба, видео

Печатать
Просмотров: 39
-------------------------------------------------------------------------------
                             SONG NAME - Band Name
-------------------------------------------------------------------------------
Tabbed by:Michael Marconi
E-mail:michaelhinson777@yahoo.com

Tuning:EADGBE
My very FIRST tab, I know the chords are spot-on. But the strumming,(to others) may be
off. Hope you enjoy! :)
Guitar 1
Play the first note through almost entirely the whole song, ending each verse with these
last two chords. (Listen to song for strumming!)
e|XXX---X-x----------------------------------------------------------1-------|
B|XXX---X-x-------------------------------------------------------1--1-------|
G|XXX---X-9------------------------------------------------------------------|
D|XXX---X-10------------------------------------------------------2--3-------|
A|XXX---X-x-------------------------------------------------------3--3-------|
E|XXX---X-x-------------------------------------------------------3--1-------|
        36x                                                       4x 4X
Guitar 2
Bridge
"Don't raise me high, Don't wear me down"(listen to song for strumming!)
e|1-----1--------------------------------------------------------------------|
B|1--1--1--1--1--------------------------------------------------------------|
G|---------------------------------------------------------------------------|
D|3--2--3--2--2--------------------------------------------------------------| 2X
A|3--3--3--3--3--------------------------------------------------------------|
E|1--5--1--3--5--------------------------------------------------------------|
  8x 8x 8x 4x 4x

Now, The solo I have not mastered the strings BUT! You just basically play the bridge
just a little faster and more solo-esque. Like how Max plays the solo for "two of a crime"
live! :) Then, play it like the Solo/Bridge until the last chorus is over and thats it! 
You now know "Wishbone" by Perma!

************************************

| /   slide up
| \   slide down
| h   hammer-on
| p   pull-off
| ~   vibrato
| +   harmonic
| x   Mute note
| b   Bend
| pb  Pre-bend
| br  Bend release
| pbr Pre-bend release
| brb Bend release bend

************************************
Добавлено: 19.07.2015
Вам также может быть интересно:
Другие материалы по этой песне:
  • Аккорды и текст

Страница создана 19.07.2015
http://primanota.ru/perma/wishbone-chords.htm
Привет, Гость.
Предлагаем пройти революционный курс по гитаре.
Подарок от PrimaNota.Ru, забирай!