PrimaNota.ru - самый крупный в мире бесплатный архив песенных текстов, аккордов, табулатур и нот


Perma - Two Of A Crime - таба, видео

Регистрация Запомнить меня
Войти через:  Facebook Google Twitter Vk Yandex Mail.ru

Perma - Two Of A Crime - таба, видео

Печатать
Просмотров: 41
-------------------------------------------------------------------------------
                             Two of A Crime - Perma
-------------------------------------------------------------------------------
Tabbed by:Michael Hinson
E-mail:michaelhinson777@yahoo.com

I tabed this song from the perma live performance cd release show @Good Records in 
Dallas, TX.
Listen to the song to see if strumming isn't accurate enough on the tab.
Here is the link to the video.
https://www.youtube.com/watch?v=OPJOUByBMPI
I am calling it the acoustic version, because of the simplicity of the performance is a 
very acoustic style, for those who are wondering. :)

Tuning:EADGBe
Verse1
"Well, hello there..."
e|-x-x--xxx-x-x--xxx--x-x--xxx-x-x--xxx--------------------------------------|
B|-x-x--xxx-x-x--xxx--x-x--xxx-x-x--xxx--------------------------------------|
G|-9-9--999-9-9--999--9-9--999-9-9--999--------------------------------------|
D|-9-9--999-9-9--999--9-9--999-7-7--777--------------------------------------| 4X
A|-7-7--777-7-7--777--7-7--777-7-7--777--------------------------------------|
E|--------------------9-9--999-5-5--555--------------------------------------|
Bridge
"Horror story..."
e|-x-x--xxx-x-x--xxx--x-x--xxx-x-x-x-----------------------------------------|
B|-x-x--xxx-x-x--xxx--x-x--xxx-x-x-x-----------------------------------------|
G|-8-8--888-8-8--888--9-9--999-9-9-9-----------------------------------------|
D|-9-9--999-9-9--999--9-9--999-9-9-9-----------------------------------------| 2X
A|-7-7--777-7-7--777--7-7--777-7-7-7-----------------------------------------|
E|-9-9--999-9-9--999--5-5--555-5-5-5-----------------------------------------|
Chorus
"All my life in the dark..."
e|-x-x-x-x-x-x-x-x-x-x-x-x-x-x-x-x-------------------------------------------|
B|-x-x-x-x-x-x-x-x-x-x-x-x-x-x-x-x-------------------------------------------|
G|-9-9-9-9-9-9-9-9-9-9-9-9-9-9-9-9-------------------------------------------|
D|-9-9-9-9-9-9-9-9-9-9-9-9-7-7-7-7-------------------------------------------| 5X
A|-7-7-7-7-7-7-7-7-7-7-7-7-7-7-7-7-------------------------------------------|
E|-----------------9-9-9-9-5-5-5-5-------------------------------------------|
Solo (before verse 3!)
e|-x-x--xxx-x-x--xxx--x-x--xxx-x-x--xxx--------------------------------------|
B|-x-x--xxx-x-x--xxx--x-x--xxx-x-x--xxx--------------------------------------|
G|-9-9--999-9-9--999--9-9--999-9-9--999--------------------------------------|
D|-9-9--999-9-9--999--9-9--999-7-7--777--------------------------------------| 3X
A|-7-7--777-7-7--777--7-7--777-7-7--777--------------------------------------|
E|--------------------9-9--999-5-5--555--------------------------------------|

And for the outro verse "Oh, come with me...)You will basically play verse1 of this song.
************************************

| /   slide up
| \   slide down
| h   hammer-on
| p   pull-off
| ~   vibrato
| +   harmonic
| x   Mute note
| b   Bend
| pb  Pre-bend
| br  Bend release
| pbr Pre-bend release
| brb Bend release bend

************************************
Добавлено: 19.07.2015
Другие материалы по этой песне:
  • Аккорды и текст

Страница создана 19.07.2015
http://primanota.ru/perma/two-of-a-crime-chords.htm
Привет, Гость.
Предлагаем пройти революционный курс по гитаре.
Подарок от PrimaNota.Ru, забирай!