PrimaNota.ru - самый крупный в мире бесплатный архив песенных текстов, аккордов, табулатур и нот


Perkele - Tired Of You - бас-таба, видео

Регистрация Запомнить меня
Войти через:  Facebook Google Twitter Vk Yandex Mail.ru

Perkele - Tired Of You - бас-таба, видео

Печатать
Просмотров: 97
intro 0:00 - 0:22

8x
G ------------------------------------------|
D -----------------6-4----------------------|
A --------8-6--4-4----------3-4-6-4-3-4-----|
E ----6-6---------------4-4-----------------|


verse 0:22(when he starts singing) - 0:48
4x
G --------------------------------------------------------------------------|
D --------------------------------------------------------------------------|
A ------------4-4-4-4----------6-6-6-6----------4-4-4-4---------------------|
E ---6-6-6-6----------4-4-4-4----------6-6-6-6----------4-4-4-4-4-4-4-4-----|


chorus 0:48 - 1:11
3x
G-------------------------------------------------------------------|
D-------------------------------------------------------------------|
A-----------------4---4-4-4-4-4-------------------------4-----------|
E--6---6-6-6-6-6-----------------4---4-4-4-4-4--2---2-2---4-(h6)----|

The last note of the loop (hammer on 6th fret on E string) is actually always the first 
note of the next repetition


The last (4th) repetition of chorus is the same, but the end is slightly different
1x
G--------------------------------------------------------------------|
D--------------------------------------------------------------------|
A-----------------4---4-4-4-4-4------------------------4-------------|
E--6---6-6-6-6-6-----------------4---4-4-4-4-4---2--2----4-(h6)------|

the last note again (6th fret on E string is actually the first note from the next part 
of the song - the guitar solo)

Guitar solo 1:12 - 1:35

8x the same as intro

verse 1:36 - 2:10
6x (not just 4x, there is a part after solo when he does not sing (2x)


chorus 2:11 - 2:34
4x


bridge 2:35 - 2:46
2x what I wrote down

G-------------------------------------------------------------------|
D-------------------------------------------------------------------|
A------------------4------------------------4-----------------------|
E--6---6--6--6--6----4-6----6---6--6--6--6----4-(h6)----------------|

outro 2:47 - fade out
repeat to fade out

G------------------------------------------------------------------|
D------------------------------------------------------------------|
A--------4------4------4---4---------4-------4------4---4----------|
E--6---6----6-6----6-6-------4-h6---6----6-6----6-6-------4-(h6)---|

G---------------------------------------------------------------------------|
D--------------6------------------6------------------6----------------------|
A-----4--6--8-----4-------4--6--8-----4-------4--6--8-----4-----------------|
E--6----------------4-h6----------------4-h6----------------4-(h6)----------|
Добавлено: 28.07.2013
Вам также может быть интересно:
Другие материалы по этой песне:
  • Аккорды и текст

Страница создана 28.07.2013
http://primanota.ru/perkele/tired-of-you-chords.htm
Привет, Гость.
Предлагаем пройти революционный курс по гитаре.
Подарок от PrimaNota.Ru, забирай!