PrimaNota.ru - самый крупный в мире бесплатный архив песенных текстов, аккордов, табулатур и нот


Перкалаба - Зозулиця - аккорды и текст, видео

Регистрация Запомнить меня
Войти через:  Facebook Google Twitter Vk Yandex Mail.ru

Перкалаба - Зозулиця - аккорды и текст, видео

Печатать
Просмотров: 55
Зозулиця
Перкалаба
  Dm(V)
e|------5-------------------------------------------------|
B|--------5-----8-6-5-5-----8-6-5-5-6-5-------------------|
G|---7------7------------7--------------7-----------------|
D|-7------------------------------------------------------|

e|-5---------5---------5---------------------------------|
B|---6---8-8---6---8-8---6---5-6-5-----------------------|
G|-----7---------7---------7-------7---------------------|
D|-------------------------------------------------------|

Dm | Dm | Gm / A | Dm }x2
Dm | Gm | Dm | Gm | Em | A | Dm

  Dm
Ой то весілля, ой то весілля
  Gm    A      Dm
Не було шо робити
Ой та розлука. ой та розлука
Не було з ким нам пити

Dm  Gm          Dm  Gm
Ой в того тата, ой в того тата
  Em    A   Dm
Гарная в квіта хата
Ой ті музики, ой ті музики
П'яні в музиків пики

   Dm
Ой ті гуляння, ой ті гуляння
 Gm     A       Dm
З вечора і до рання
Ой ті дівчата, ой ті дівчата
Мають дівчата тата

Dm  Gm  Dm  Gm
Та-та-та-та-та
Та-та-та-та-та
 Em    A   Dm
Мають дівчата тата

Та-та-та-та-та
Та-та-та-та-та
Мають дівча та-тата
Добавлено: 11.06.2016
Другие материалы по этой песне:
  • Аккорды и текст

Страница создана 11.06.2016
http://primanota.ru/perkalaba/zozulicya-chords.htm
Привет, Гость.
Предлагаем пройти революционный курс по гитаре.
Подарок от PrimaNota.Ru, забирай!