PrimaNota.ru - самый крупный в мире бесплатный архив песенных текстов, аккордов, табулатур и нот


Periphery - Mile Zero - таба, видео

Регистрация Запомнить меня
Войти через:  Facebook Google Twitter Vk Yandex Mail.ru

Periphery - Mile Zero - таба, видео

Печатать
Просмотров: 150
Periphery - Mile Zero
Wes Huachs Guest Solo 3:50
Tabbed by Lorcan Ward
Tuning - E standard 27th fret guitar

Contact me at:
https://www.facebook.com/LorcanWardGuitar

|-----------------------------------------------------------8--|
|--3/5---------7--5/7---8----------8/12--10--10h12---10/12-----|
|-------4------------------5/7~~-------------------------------|
|----------5---------------------------------------------------|
|--------------------------------------------------------------|
|--------------------------------------------------------------|

|-----------------------------------3--5--7/8\7p5p3-----------/12p7--|
|--10/12--13---------------------5-------------------5---------------|
|-------------9~~~------------5-------------------------4------------|
|--------------------------5-----------------------------------------|
|---------------------3h7--------------------------------------------|
|--------------------------------------------------------------------|

|---10--12p10p7---------------------------------------------------------|
|----------------8---------8--------------------------------------------|
|-------------------9--7------9p7-------------------------------12--14--|
|----------------------------------9--------9p7-------------14----------|
|-------------------------------------10p7-------10-/12h15--------------|
|-----------------------------------------------------------------------|

|------------------------------12--14------15--14b15r14--|
|--------------13----------13----------13----------------|
|------12--14------12--14--------------------------------|
|--14----------------------------------------------------|
|--------------------------------------------------------|
|--------------------------------------------------------|


|--12--------------------------------------19--20------------|
|------13-----------------------/22b24-------------22b24-----|
|----------12-11~~~~\----------------------------------------|
|------------------------------------------------------------|
|------------------------------------------------------------|
|------------------------------------------------------------|

|--19--24------------19--20--------------19----15------------------------|
|----------22b24--------------22b24----------------17--------------------|
|-----------------------------------------------------16-----------------|
|---------------------------------------------------------17-------------|
|-------------------------------------------------------------19\17~~----|
|------------------------------------------------------------------------|

|--14--------14b15---17----------------------------------------|
|------------------------15b17~~~~----15b17r15----\12----12\8--|
|--------------------------------------------------------------|
|--------------------------------------------------------------|
|-------17-----------------------------------------------------|
|--------------------------------------------------------------|

|---------------------------------------------24/19----15h19p15--------|
|--/15--10--12----19--15--17----22--17--19----------17----------17-19--|
|----------------------------------------------------------------------|
|----------------------------------------------------------------------|
|----------------------------------------------------------------------|
|----------------------------------------------------------------------|

|--15-------------19-0--27----24-27-24----22-24-19-22-19-22----------------------------|
|-----17-19-17-15----------24----------24-------------------24-19-20-24-19-20----------|
|------------------------------------------------------------------------------19~~~~~-|
|--------------------------------------------------------------------------------------|
|--------------------------------------------------------------------------------------|
|--------------------------------------------------------------------------------------|

What I play since I dont have 27 frets
|--15-------------19-0--24-19-24-24-24-19-22-24-19-22-19-22----------------------------|
|-----17-19-17-15-------------------------------------------24-19-20-24-19-20----------|
|------------------------------------------------------------------------------19~~~~~-|
|--------------------------------------------------------------------------------------|
|--------------------------------------------------------------------------------------|
|--------------------------------------------------------------------------------------|
Добавлено: 26.08.2013
Другие материалы по этой песне:

Страница создана 26.08.2013
http://primanota.ru/periphery/mile-zero-chords.htm
Привет, Гость.
Предлагаем пройти революционный курс по гитаре.
Подарок от PrimaNota.Ru, забирай!