PrimaNota.ru - самый крупный в мире бесплатный архив песенных текстов, аккордов, табулатур и нот


Periphery - Have A Blast - таба, видео

Регистрация Запомнить меня
Войти через:  Facebook Google Twitter Vk Yandex Mail.ru

Periphery - Have A Blast - таба, видео

Печатать
Просмотров: 202
-----------------------------------------------------------------------------
                             Have a Blast (Misha's solo)
-----------------------------------------------------------------------------
i havent worked on leaning Guthrie's solo yet, but i will get it up here as soon 
as possible.there are probably some mistakes in here, but ober all i hope this helps

Tabbed by: bentleyfamily
E-mail: Douglasebentley@gmail.com

Tuning: drop c

|---------------------------------------------------------------------17~~--|
|-----------14h15p14-12--12------------14-12-15-18-17~~18-17-20~~18-17----20|
|-----14-16------------14--14-12--12-14-------------------------------------|
|12-15--------------------------15------------------------------------------|
|---------------------------------------------------------------------------|
|---------------------------------------------------------------------------|

|---------------------------------------------------------------------------|
|18----17h18p17-15-17-14-12~~14---------------------------------------------|
|-------------------------------14~~-12-14----9h10p9---9------12-10~~~-9-10-|
|-----------------------------------------15---------12--10-12--------------|
|---------------------------------------------------------------------------|
|---------------------------------------------------------------------------|

|9-12--12-------------------------------------------------------------------|
|-----------------------------------------------------------------12b14r12p-|
|----10--10--12-9-10--7-9--5-6-5h6p5---------------5-6-8-9-6-8-9------------|
|------------------------------------8-6-4---4-6-8--------------------------|
|------------------------------------------7--------------------------------|
|---------------------------------------------------------------------------|
                                     
|-----------------13---15---12~~~p11p10-------------------------------------|
|10~~--------14-------------------------12b14-r12---------------------------|
|------12-14----------------------------------------------------------------|
|---------------------------------------------------------------------------|
|---------------------------------------------------------------------------|
|---------------------------------------------------------------------------|


i cant do anything about those last three lines so just bear with it
************************************

| /   slide up
| \   slide down
| h   hammer-on
| p   pull-off
| ~   vibrato
| +   harmonic
| x   Mute note
| b   Bend
| pb  Pre-bend
| br  Bend release
| pbr Pre-bend release
| brb Bend release bend

************************************
Добавлено: 14.07.2013
Другие материалы по этой песне:

Страница создана 04.06.2013
http://primanota.ru/periphery/have-a-blast-chords.htm
Привет, Гость.
Предлагаем пройти революционный курс по гитаре.
Подарок от PrimaNota.Ru, забирай!