PrimaNota.ru - самый крупный в мире бесплатный архив песенных текстов, аккордов, табулатур и нот


Periphery - Buttersnips - текст песни, бас-таба, видео

Регистрация Запомнить меня
Войти через:  Facebook Google Twitter Vk Yandex Mail.ru

Periphery - Buttersnips - текст песни, бас-таба, видео

Печатать
Просмотров: 185
Buttersnips
Composed by Periphery
Transcribed by Emily Rosenfield

F|---------------------------------------------------------------|   intro x2
C|---------------------------------------------------------------|
G|----------0--15---------------0--15----------------------------|
C|---0--12--------x--12--0--12--------x--11----------------------|
                                                                                         
              (second time)
F|----------------------------------------|-----------------------|
C|----------------------------------------|-----------------------|
G|-----------------------------4--0--1--0-|-----------------------|
C|--0--4--1--0--6--0--3--0--0-------------|-12/-------------------|

Then, repeat intro x2 and above riff x2

F|--------------------------------------------------------------------------------------------|
C|--------------------------------------------------------------------------------------------|
G|-------------1--4------------1--4-----------1-x-4-x-------------1-1-1-1-4-4-4-4-------------|
C|---2---2--1--------2---2--1--------2---2--1---------3--2---2--1-----------------3-3-3-3-----|

F|------------------------------------------------------------------------------------|
C|------------------------------------------------------------------------------------|
G|------------------------------------------------------------------------------------|
C|-2--2--2--2--1--1--1--1--5--5--5--5--4--4--4--4--3--3--3--3-0--0--0--0-6--6--6--6---|

Play twice, second time no fast pull off from the fourth (low)C3 to C0 and C0 to C6

F|------------------------------------------------------------------------|
C|------------------------------------------------------------------------|
G|--------------------------------------------------------4-7-------------|
C|-x--x--x-x---x-x--x--x-x-x--0---0---0-4-1-0-6-x-x-3-x-x-----0-1-4-------|

Twice. Second time don't do the palm mutes.

F|---------------------------------------------------------------|
C|---------------------------------------------------------------|
G|------------1--4-----------------------------------------------|
C|---2---2--1----------------------------------------------------|
This, then intro x4

F|---------------------------------------------------------------|
C|---------------------------------------------------------------|
G|---------------------------------------------------------------|
C|--0(let it ring)---0--3--0--3--0-------------------------------|

Play C0 and C3 during this part playing the same groove as the kick (basically same
groove as the next part).

F|---------------------------------------------------------------|
C|---------------------------------------------------------------|
G|---------------------------------------------------------------|
C|--0--0--00-0--0--0--0--00--0-0--1-1-1-1-1-1-1-1-1-1-1----------|

F|---------------------------------------------------------------|
C|---------------------------------------------------------------|
G|--1--1--11-1--1--1--1--11--1-1---------------------------------|
C|--------------------------------5-5-5-5-5-5-5-5-5-5-5----------|

I tried to tab out the groove, but I can't really do it unless I use standard notation.
Do this section twice.

F|----------------------------------------------------------------|
C|----------------------------------------------------------------|  Normal
G|-----------------------------4--0--1--0-------------------------|
C|--0--4--1--0--6--0--3--0--0-------------------------------------|

Now the same riff but with an extra note in the beginning for syncopation.

F|---------------------------------------------------------------|
C|---------------------------------------------------------------|
G|-----------------------------4--0--1--0------------------------| Syncopated
C|-0-0--4--1--0--6--0--3--0--0-----------------------------------|

Do the normal one once and then the syncopated one three times.

F|-------------------------------------------------------------------------------------------|
C|-------------------------------------------------------------------------------------------|
G|-------------------------------------------------------------------------------------------|
C|--0-x-0-x--0-x-0-x--0-x-0-x--0-x-0-x--0-x--0-x--1-x-1-x--1-x-1-x--9-x-9-x--9-x-9-x--9-x----|

F|--------------------------------------------------------------------------------|
C|--------------------------------------------------------------------------------|
G|--------------------------------------------------------------------------------|
C|--8-x-8-x--8-x-8-x--3-x-3-x--8-x-8-x—8-x--6-x-6-x--6-x-6-x--6-x-6-x--6-x-6-x----|

^Whole section twice

F|----------------------------------------------------------------|
C|----------------------------------------------------------------|
G|----------------------------------------------------------------|
C|-0-0-0-0-0-0-0-0-0-0-0-0-0-0-0-0-1-1-1-1-1-1-1-1-1-1-1-1-1-1-1-1|

F|--------------------------------------------------------------------------------|
C|--------------------------------------------------------------------------------|
G|--------------------------------------------------------------------------------|
C|--3-3-3-3-3-3-3-3-3-3-3-3-3-3-3-3-1-1-1-1-1-1-1-1-1-1-1-1-1-1-1-x-x-xx-xx-x-xxx-|


F|------------------------------------------------------------------------|
C|------------------------------------------------------------------------|
G|------------------------------4-7---------------------------------------|
C|- 0---0---0-4-1-0-6-x-x-3-x-x-----0-1-4---------------------------------|

F|------------------------------------------------------------------------|
C|------------------------------------------------------------------------|
G|------------------------------------------------------------------------|
C|- 0---0---7-7-7-7-7-7-6-6-6-6-6-6-7-7-7-7-7-7-7-7-7-7-7-7-0-------------|
Добавлено: 29.10.2013
Другие материалы по этой песне:

Страница создана 17.03.2012
http://primanota.ru/periphery/buttersnips-chords.htm
Привет, Гость.
Предлагаем пройти революционный курс по гитаре.
Подарок от PrimaNota.Ru, забирай!