PrimaNota.ru - самый крупный в мире бесплатный архив песенных текстов, аккордов, табулатур и нот


Perfume - Spice - таба, видео

Регистрация Запомнить меня
Войти через:  Facebook Google Twitter Vk Yandex Mail.ru

Perfume - Spice - таба, видео

Печатать
Просмотров: 51
e|-6----------------------------------3------------|
B|-6---------------------5------------3------------|
G|-8----------10---------4------------4------------| x4
D|-8----------10---------5------------5------------|
A|-6----------8----------3------------3------------|
E|------------8------------------------------------|

e|-6----------6----------------6--------3----8-----|
B|-6----------6------8---------6--------3----8-----|
G|-8----------7------8---------8--------3----8-----| x2
D|-8----------8------10--------8--------5----10----| 
A|-6----------8------10--------6--------5----10----|
E|------------6------8------------------3----8-----|

e|-----------------------------------------------|
B|-----------------------------------------------|
G|-8-----6--8-8-----6--8-10----8--10-11----12----|
D|-6-----4--6-6-----4--6-8-----6--8--9-----10----| x1
A|-6-----4--6-6-----4--6-8-----6--8--9-----10----|
E|-----------------------------------------------|

e|-6-------------------------------|
B|-6-------------------------------|
G|-8- play this chord for a while -|
D|-8-------------------------------| x1
A|-6-------------------------------|
E|---------------------------------|

e|-6----------6----------------6--------3----8-----|
B|-6----------6------8---------6--------3----8-----|
G|-8----------7------8---------8--------3----8-----|
D|-8----------8------10--------8--------5----10----| x4
A|-6----------8------10--------6--------5----10----|
E|------------6------8------------------3----8-----|

e|-6----------------------------------3------------|
B|-6---------------------5------------3------------|
G|-8----------10---------4------------4------------|
D|-8----------10---------5------------5------------| x4
A|-6----------8----------3------------3------------|
E|------------8------------------------------------|

e|-6----------6----------------6--------3----8-----|
B|-6----------6----------------6--------3----8-----|
G|-8----------7----------------8--------3----8-----|
D|-8----------8----------------8--------5----10----| x2
A|-6----------8----------------6--------5----10----|
E|------------6-------------------------3----8-----|

e|-6----------6----------------6--------3----8-----|
B|-6----------6------8---------6--------3----8-----|
G|-8----------7------8---------8--------3----8-----|
D|-8----------8------10--------8--------5----10----| x4
A|-6----------8------10--------6--------5----10----|
E|------------6------8------------------3----8-----|

e|-6--------------------------------|
B|-6--------------------------------|
G|-8- play this chord until the end-|
D|-8--------------------------------|
A|-6--------------------------------|
E|----------------------------------|

Добавлено: 24.11.2015
Другие материалы по этой песне:
  • Аккорды и текст

Страница создана 24.11.2015
http://primanota.ru/perfume/spice-chords.htm
Привет, Гость.
Предлагаем пройти революционный курс по гитаре.
Подарок от PrimaNota.Ru, забирай!