PrimaNota.ru - самый крупный в мире бесплатный архив песенных текстов, аккордов, табулатур и нот


Perfume - Electro World - таба, видео

Регистрация Запомнить меня
Войти через:  Facebook Google Twitter Vk Yandex Mail.ru

Perfume - Electro World - таба, видео

Печатать
Просмотров: 152
This is the guitar tab for the song "Electro World" by Japanese techno group Perfume 
at ). The guitar (let alone the rhythm of it) 
kind of hard to hear but this should be spot on.

Some of the rhythms in the tab may look confusing but listening to the song while you 
through will make it very clear.

I'll just take you through the whole thing note for note.

e|---------------------------------------|
B|---------------------------------------|
G|----------8~~~--------------5~~~-----3-|
D|-6~~~-----8~~~-----6~~~-----5~~~-----3-|
A|-6~~~-----6~~~-----6~~~-----3~~~-----1-|
E|-4~~~--------------4~~~----------------|

e|--------------------------------------|
B|--------------------------------------|
G|----------8~~~--------------5~~~--333-|
D|-6~~~-----8~~~-----6~~~-----5~~~--333-|
A|-6~~~-----6~~~-----6~~~-----3~~~--111-|
E|-4~~~--------------4~~~---------------|

e|-----------------------------------------------------------|
B|-----------------------------------------------------------|
G|---------------88-88--88-88----------------55-55--55--5333-|
D|-66-66--66-66--88-88--88-88--66-66--66-66--55-55--55--5333-|
A|-66-66--66-66--66-66--66-66--66-66--66-66--33-33--33--3111-|
E|-44-44--44-44----------------44-44--44-44------------------|

e|---------------------------------------------------------|
B|---------------------------------------------------------|
G|---------------88-88--88-88----------------55-55--55--53-|
D|-66-66--66-66--88-88--88-88--66-66--66-66--55-55--55--53-|
A|-66-66--66-66--66-66--66-66--66-66--66-66--33-33--33--31-|
E|-44-44--44-44----------------44-44--44-44----------------|

e|----------------------------------|
B|----------------------------------|
G|-----88--33-1010------88--33-1010-|
D|-66--88--33-1010--66--88--33-1010-|
A|-66--66--11-8-8---66--66--11-8-8--|
E|-44---------------44--------------|

Watch out. The rhythm on this time is different on the last chord.
e|-------------------------------------|
B|-------------------------------------|
G|-----88--33--1010------88--333333-xx-|
D|-66--88--33--1010--66--88--333333-xx-|
A|-66--66--11--8-8---66--66--111111-xx-|
E|-44----------------44----------------|
         Here^^

-BREAK-

e|-----------------------|    |------------------------|
B|-----------------------|    |------------------------|
G|-55-58-xx-1313-1310-xx-|    |-55-58-xx-1313-58--xx-x-|
D|-55-58-xx-1313-1310-xx-| x3 |-55-58-xx-1313-58--xx-x-|
A|-33-36-xx-1111-118--xx-|    |-33-36-xx-1111-36--xx-x-|
E|-----------------------|    |------------------------|

-BREAK-

e|-----------------------|    |----------------------|
B|-----------------------|    |----------------------|
G|-55-58-xx-1313-1310-xx-|    |-55-58-xx-1313-58--xx-|
D|-55-58-xx-1313-1310-xx-| x3 |-55-58-xx-1313-58--xx-|
A|-33-36-xx-1111-118--xx-|    |-33-36-xx-1111-36--xx-|
E|-----------------------|    |----------------------|

e|---------------------------------------|
B|---------------------------------------|
G|----------8~~~--------------8~~~-----3-|
D|-6~~~-----8~~~-----6~~~-----8~~~-----3-|
A|-6~~~-----6~~~-----6~~~-----6~~~-----1-|
E|-4~~~--------------4~~~----------------|

e|--------------------------------------|
B|--------------------------------------|
G|----------8~~~--------------5~~~--333-|
D|-6~~~-----8~~~-----6~~~-----5~~~--333-|
A|-6~~~-----6~~~-----6~~~-----3~~~--111-|
E|-4~~~--------------4~~~---------------|

e|-----------------------------------------------------------|
B|-----------------------------------------------------------|
G|---------------88-88--88-88----------------55-55--55--5333-|
D|-66-66--66-66--88-88--88-88--66-66--66-66--55-55--55--5333-|
A|-66-66--66-66--66-66--66-66--66-66--66-66--33-33--33--3111-|
E|-44-44--44-44----------------44-44--44-44------------------|

e|---------------------------------------------------------|
B|---------------------------------------------------------|
G|---------------88-88--88-88----------------55-55--55--53-|
D|-66-66--66-66--88-88--88-88--66-66--66-66--55-55--55--53-|
A|-66-66--66-66--66-66--66-66--66-66--66-66--33-33--33--31-|
E|-44-44--44-44----------------44-44--44-44----------------|

e|-----------------------------------------------------------|
B|-----------------------------------------------------------|
G|---------------88-88--88-88----------------55-55--55--5333-|
D|-66-66--66-66--88-88--88-88--66-66--66-66--55-55--55--5333-|
A|-66-66--66-66--66-66--66-66--66-66--66-66--33-33--33--3111-|
E|-44-44--44-44----------------44-44--44-44------------------|

e|---------------------------------------------------------|
B|---------------------------------------------------------|
G|---------------88-88--88-88----------------55-55--55--53-|
D|-66-66--66-66--88-88--88-88--66-66--66-66--55-55--55--53-|
A|-66-66--66-66--66-66--66-66--66-66--66-66--33-33--33--31-|
E|-44-44--44-44----------------44-44--44-44----------------|

e|----------------------------------|
B|----------------------------------|
G|-----88--33-1010------88--33-1010-|
D|-66--88--33-1010--66--88--33-1010-| x3
A|-66--66--11-8-8---66--66--11-8-8--|
E|-44---------------44--------------|

Watch out. The rhythm on this time is different on the last chord.
e|--------------------------|
B|--------------------------|
G|-----88--33--1010------88-|
D|-66--88--33--1010--66--88-| Electro World!
A|-66--66--11--8-8---66--66-|
E|-44----------------44-----|
         Here^^
Добавлено: 18.03.2012
Другие материалы по этой песне:
  • Аккорды и текст

Страница создана 18.03.2012
http://primanota.ru/perfume/electro-world-chords.htm
Привет, Гость.
Предлагаем пройти революционный курс по гитаре.
Подарок от PrimaNota.Ru, забирай!