PrimaNota.ru - самый крупный в мире бесплатный архив песенных текстов, аккордов, табулатур и нот


Perfect - Niepokonani - аккорды и текст, таба, видео

Регистрация Запомнить меня
Войти через:  Facebook Google Twitter Vk Yandex Mail.ru

Perfect - Niepokonani - аккорды и текст, таба, видео

Печатать
Просмотров: 316
Niepokonani
Perfect
Tuning: Half-step down (pół tonu niżej) -> D#G#C#F#A#D#
Akordy:
Bm (x2443x)
Bm/A (x0443x)
Bm/G (3x443x)
F#m (244222)
B5 (x244xxx)
Dsus2 (xx0230)
Bm7 (x2423x)
Em7 (022030)
A7sus4add9 (x05700)
A9 (x05600)
G6 (320030)
G6/F# (2x0030)
E/G# (4x2400)
G7M/5-   (3x442x)
F# (244322)
F#7 (242322)
Bsus2 (x24422)
Esus2/B (x22452)


Fig1
----10-9-7-7s5---|
----10-9-7-7s5---|
-----------------|
-----------------|
---------------0-|
--7*-------------|

Fig2
-----|
-----|
-----|
-----|
-2-4-|
-----|

Fig3
Em7 F#m7 Em7
-------------------|
-8---10---8--------|
-7----9---7---6s7s6|
-9---11---9--------|
-7----9---7---4s5s4|
-------------------|

Fig4                             Bsus4/C#
----10-9-7-7s5-|--------0--------0|
----10-9-7-7s5-|---0-----0-------0|
---------------|--7-7--7---------4|
---------------|-6----5----4s2p0-4|
---------------|-----------------4|
--7*-----------|------------------|

7* flażolet na 7 progu
(7---) przytrzymywanie struny na 7

____________________________________________________________________________________

Intro                                                               Bsus4/C#
-10-10-9-7-7s5-|----------------|------10-9-7-7s5-|--------0--------0|
-10-10-9-7-7s5-|-9-9-7h9h10-9-7-|------10-9-7-7s5-|---0-----0-------0|
---------------|-7-7-7(7---)7-7-|-----------------|--7-7--7---------4|
---------------|----------------|-----------------|-6----5----4s2p0-4|
---------------|----------------|-----------------|-----------------4|
---------------|----------------|-5s(7-----)------|------------------|

Bm  Bm/A       Bm/G          F#m              Fig1
Gdy emocje już opadną, jak po wielkiej bitwie kurz
Bm     Bm/A       Bm/G        F#m              B5   Fig2
Gdy nie można mocą żadną, wykrzyczanych cofnąć słów
Dsus2   Bm7             Em7            A7sus4add9 A9          G6   G6/F# Fig3
Czy w milczeniu białych haniebnych flag,          zejść z barykady
Bm   Bm/A          E/G#       G7M/5-  
Czy podobnym być do skały, posypując solą ból
    F#          F#7       Fig4
Jak posąg pychy samotnie stać

Bm  Bm/A             Bm/G          F#m                 Fig1
Gdy ktoś kto mi jest światełkiem, gaśnie nagle w biały dzień
Bm     Bm/A       Bm/G        F#m               B5   Fig2
Gdy na drodze za zakrętem, przeznaczenie spotka mnie
Dsus2   Bm7             Em7    A7sus4add9 A9         G6   G6/F# Fig3
Czy w bezsilnej złości łykając żal,       dać się powalić
Bm      Bm/A         E/G#         G7M/5-  
Czy się każdą chwilą bawić, aż do końca wierząc że
    F#      F#7    Bsus2
Los inny mi pisany jest

Bridge

Esus2/B                       Bsus2
Płyniemy przez wielki Babilon
Esus2/B                 F#  Fig2
Dopóki miłość nie złowi nas

Dsus2 Bm7            Em7    A7sus4add9 A9     G6  G6/F# Fig3
W korowodzie zmysłów możemy trwać      niepokonani
        Bm      Bm/A  E/G#      G7M/5-  
Nim się ogień w nas wypali, nim ocean naszych snów
F#           F#7       Bm
Łyżeczką się odmierzyć da

Solo

Dsus2   Bm7           Em7      A7sus4add9 A9     G6  G6/F# Fig3
Trzeba wiedzieć kiedy ze sceny zejść      Niepokonanym
        Bm    Bm/A       E/G#          G7M/5-  
Wśród tandety lśniąc jak diament, być zagadką, której nikt
F#                F#7        
Nie zdąży zgadnąć nim minie czas

Outro                                                                   Bm
----10-9-7-7s5-|----------------|------10-9-7-7s5-|--------0-------------|
----10-9-7-7s5-|-9-9-7h9h10-9-7-|------10-9-7-7s5-|---0-----0--0--------3|
---------------|-7-7-7(7---)7-7-|-----------------|--7-7--7---7-7-------4|
---------------|----------------|-----------------|-6----5---4----2p0---4|
---------------|----------------|-----------------|-------------------4-2|
--7*-----------|----------------|-5s(7-----)------|----------------------|
Добавлено: 22.07.2015
Другие материалы по этой песне:

Страница создана 03.03.2012
http://primanota.ru/perfect/niepokonani-chords.htm
Привет, Гость.
Предлагаем пройти революционный курс по гитаре.
Подарок от PrimaNota.Ru, забирай!