PrimaNota.ru - самый крупный в мире бесплатный архив песенных текстов, аккордов, табулатур и нот


Pereza - Princesas - таба, бас-таба, видео

Регистрация Запомнить меня
Войти через:  Facebook Google Twitter Vk Yandex Mail.ru

Pereza - Princesas - таба, бас-таба, видео

Печатать
Просмотров: 181
Уроки эстрадного вокала в Санкт-Петербурге
Intro:
e--------------------|
b--------------------|
g--------------------|   Palm mute
d--------------------|
a--------------------|
E----3-3-3-3-3-3-3-3-|

Riff 1
e---------------------------------------------------------3--|
b---------------------------------------------------------3--|
g---------------------------------------------------------0--|
d---------------------------------------------------------2--|
a---------------------------------------------------------3--|
E-3-3-3-3-3-3-3-3-3-3-3-3-3-3-3-2-2-2-2-0-0-0-0-0-0-0-0---x--|

(riff 1)
G
Sigo buscando una sonrisa de repente en un bar
G                                       Fm#
Una calada de algo que me pueda colocar
    Em                           C6add9      G  (riff 2)x2
Una película que consiga hacerme llorar, ahá


Riff 2
e-------------------------------|
b--/12--12--12--12--12--x-------|
g--/12--12--12--12--12--x-------|
d--/12--12--12--12--12—-11h12---|
a--/10--10--10--10--10--10------|
E-------------------------------|

Riff 3
e-------------------------------------------------|
b--/12--12--12--12--12--x-----12-12---------------|
g--/12--12--12--12--12--x-----12-12--9-9-9-9--5---|
d--/12--12--12--12--12—-11h12-12-12--9-9-9-9--5---|
a--/10--10--10--10--10--10----9--9---7-7-7-7--3---|
E-------------------------------------------------|


(riff 3)
G
Cambiar un no me creo nada por te quiero, chaval
G                                                    Fm#
Cualquier excusa, una chorrada, es buena para brindar
          Em                    C                       G (riff 2)x2
Soltar en una carcajada todo el aire y después respirar



         C                Dadd9      Em
Sentirme como una colilla entre unos labios al fumar
    C                  Dadd9  Em
Colgarme de cualquiera que le guste trasnochar


Riff 4
e--------------------------------------------------|
b--------------------------------------------------|
g---7-7-7-7-9-9-9-9-11-11-11-11-12-12-12-12--------|
d---7-7-7-7-9-9-9-9-11-11-11-11-12-12-12-12--------|
a---5-5-5-5-7-7-7-7-9--9--9--9--10-10-10-10--------|
E--------------------------------------------------|

                o este riff

e--------------------------------------------------|
b--------------------------------------------------|
g---------------9-9-9-9-11-11-11-11-12-12-12-12----|
d---12-12-12-12------------------------------------|
a--------------------------------------------------|
E--------------------------------------------------|

           (riff 4)
           D          Em      Fm#           G
Qué inoportuno fue decirte me tengo que largar
         C
Pero qué bien estoy ahora


                      G          C     Dadd9    G
No quiero volver a hablar de princesas que buscan
      Am     C     G         C   Dadd9 Em
Tipos que coleccionar a los pies de su cama
     F               C     G    (riff 5)x2
Eres algo que he olvidado ya

Riff 5
e-----------------------------------------------|
b---------8-8-------7-7-------5-5-------3-------|
g-----------------------------------------------|
d---5-5-5-----5-5-5-----5-5-5-----5-5-5---------|
a-----------------------------------------------|
E-----------------------------------------------|

Riff 6
e-----------------------------------------------------|
b--/12--12--12--12--12--x-----12-12----------------8--|
g--/12--12--12--12--12--x-----12-12--9—7h9p7-7h8p7----|
d--/12--12--12--12--12—-11h12-12-12--9----------------|
a--/10--10--10--10--10--10----9--9---7----------------|
E-----------------------------------------------------|



(riff 6)
        G
Ando silbando, me paro con la gente a charlar
G                                         Fm#
Me tomo algo, sonríe, me lo vuelvo a tomar
        Em    C                    G      (riff 2)x2
Escucho música y me pongo a bailar





(riff 3)
G
Sigo flipando cuando veo mi cara en el as
G                                         Fm#
Últimamente las cosas cambian cada vez más
        Em         C                    G    (riff 7)
A veces pienso que algo malo viene detrás

Riff 7
e----------------------------------------------------|
b----------------------------------------------------|
g---------------------12-----------------------------|
d----------------------------------------------------|
a----3/10-10-10-10-10----10-10-10-10-10-10-10/17-----|
E----------------------------------------------------|

          C                Dadd9      Em
Me siento como una colilla entre unos labios al fumar
    C                   Dadd9  Em
Me cuelgo de cualquiera que le guste trasnochar

         (riff 4)
           D          Em       Fm#           G
Qué inoportuno fue decirte me tengo que largar
         C
Pero qué bien estoy ahora




                      G          C     Dadd9    G
No quiero volver a hablar de princesas que buscan
      Am     C     G         C   Dadd9 Em
Tipos que coleccionar a los pies de su cama
     F      C
Eres algo..

                      G          C     Dadd9    G
No quiero volver a hablar de princesas que buscan
      Am     C     G         C   Dadd9 Em
Tipos que coleccionar a los pies de su cama
     F               C     G
Eres algo que he olvidado ya

(riff 3)
G
Sigo buscando una sonrisa de repente en un bar
G                                       Fm#
Una calada de algo que me pueda colocar
    Em                         C
Una película que consiga hacerme llorar...

    G           C     Dadd9    G
........ de princesas que buscan
      Am     C     G         C   Dadd9 Em
Tipos que coleccionar a los pies de su cama
     F      C
Eres algo..

                      G           C     Dadd9   G
No quiero volver a hablar de princesas que buscan
      Am     C     G         C   Dadd9 Em
Tipos que coleccionar a los pies de su cama
     F               C     G
Eres algo que he olvidado ya

(riff 5)


Acordes:

    G          Fm#           Em        C6add9         C          Dadd9

e---3---    e---2---    e---0---    e---3----    e---0---     e---x---|
b---3---    b---2---    b---0---    b---3----    b---1---     b---3---|
g---0---    g---2---    g---0---    g---0----    g---0---     g---0---|
d---0---    d---4---    d---2---    d---2----    d---2----    d---4---|
a---2---    a---4---    a---2---    a---3----    a---3----    a---5---|
E---3---    E---2---    E---0---    E---x----    E---0----    E---x---|


    D           Am          F

e---5---    e---0----   e---1---|
b---7---    b---1----   b---1---|
g---7---    g---2----   g---2---|
d---7---    d---2----   d---3---|
a---5---    a---0----   a---3---|
E---5---    E---0----   e---1---|
Добавлено: 04.06.2012
Другие материалы по этой песне:
  • Аккорды и текст

Страница создана 04.06.2012
http://primanota.ru/pereza/princesas-chords.htm
Привет, Гость.
Предлагаем пройти революционный курс по гитаре.
Подарок от PrimaNota.Ru, забирай!