PrimaNota.ru - самый крупный в мире бесплатный архив песенных текстов, аккордов, табулатур и нот


Переделанные песни (пародии) - House of Rising Sun (пародия) - аккорды и текст, видео

Регистрация Запомнить меня
Войти через:  Facebook Google Twitter Vk Yandex Mail.ru

Переделанные песни (пародии) - House of Rising Sun (пародия) - аккорды и текст, видео

Печатать
Просмотров: 188
Новый альбом группы 'Черный Кузнец' по культовому сериалу 'Сверхъестественное'!
House of Rising Sun (пародия)
Переделанные песни (пародии)
 (петь нужно дебильным голосом на мотив "House of the rising sun")

 Проигрыш: ритмично и мелодично
    Gm       G       C        Gm
1------0-------0-----2-2-------0---
2----1--1----1--1----3--3----1--1--
3----2---2---2---2---2---2---2---2-
4--2-2-------0-----0-0-------2-----
5----------3-3-------------0-0-----
6----------------------------------
    Gm       G       G
1------0-------0-------0----------
[2----1--1----1--1----0--0---------] повторить
[3----2---2---2---2---1---1--------] сначала:
[4--2-2-------0-------2-----2------] Gm; G; C; Gm
[5----------3-3-----2-2--------3h2-] потом по
[6---------------------------------] аналогии:

                    Gm; G; Gm
Verse 1; Riff 1:
  Gm      G         C         Gm
В старом сосновом еврейском бору...
    Gm         G       G
Там грустная песня звучала
О том как Абрам уходил на войну
    Gm   G       Gm
А Сара его провожала...

Verse 2; Riff 2:
    Gm       G       C        Gm
1------0-------0---2-2-2-------0---
2--1-1--1--1-1--1--3-3--3--1-1--1--
3--2-2---2-2-2---2-2-2---2-2-2---2-
4--2-2-----0-0-----0-0-----2-2-----
5----------3-3-------------0-0-----
6----------------------------------
    Gm       G       G
1------0-------0-------0----------
2--1-1--1--1-1--1--0-0--0---------
3--2-2---2-2-2---2-1-1---1--------
4--2-2-----0-0-----2-2-----2------
5----------3-3-----2-2--------3h2-
6---------------------------------

Будь храбрым будь смелым Абрам мой Абрам
За русскую спину ховайся
А если вдруг вспомнишь ты Сару свою
  Gm         G         Gm
Домой без монет не вертайся

Verse 3: те же, только играются "чесом"

Отшумела отгремела та лютая война
Абрам с той войны не вернулся...   (лирическая пауза-все в трауре *8-)))

Далее диким и быстрым боем:

     Gm         G       C       Gm
Фаши-и-истская пуля настигла его-о-о-о
  Gm            G          Gm
Когда русский Ванька споткнулся!
Добавлено: 24.01.2018
http://primanota.ru/peredelannye-pesni-parodii/house-of-rising-sun-parodiya-chords.htm
Привет, Гость.
Предлагаем пройти революционный курс по гитаре.
Подарок от PrimaNota.Ru, забирай!