PrimaNota.ru - самый крупный в мире бесплатный архив песенных текстов, аккордов, табулатур и нот


Pere Ubu - Life Stinks - бас-таба, видео

Регистрация Запомнить меня
Войти через:  Facebook Google Twitter Vk Yandex Mail.ru

Pere Ubu - Life Stinks - бас-таба, видео

Печатать
Просмотров: 166
Pere Ubu - Life Stinks

------------------7------------------------|
-------5-5-5----5--7-----5-55--------------|
--7-7-------7-7------7-7------7-7-5--------|
------------------------------------7-6-5--|

------------------7------------------------|
-------5-5-5----5--7-----5-55--------------|
--7-7-------7-7------7-7------7-7-5--------|
------------------------------------7-6-5--|

------------------7------------------------|
-------5-5-5----5--7-----5-55--------------|
--7-7-------7-7------7-7------7-7-5--------|
------------------------------------7-6-5--|

"Rocket From The Tombs was a Cleveland-based group that eventually fragmented: some
formed The Dead Boys, while David Thomas and guitarist Peter Laughner joined with guitarist
Herman, bass guitarist Tim Wright, drummer Scott Krauss and synthesist Allen Ravenstine 
form Pere Ubu in 1975."

http://en.wikipedia.org/wiki/Pere_ubu
http://www.ubuprojex.net/
Добавлено: 27.04.2012
Другие материалы по этой песне:
  • Аккорды и текст

Страница создана 27.04.2012
http://primanota.ru/pere-ubu/life-stinks-chords.htm
Привет, Гость.
Предлагаем пройти революционный курс по гитаре.
Подарок от PrimaNota.Ru, забирай!