PrimaNota.ru - самый крупный в мире бесплатный архив песенных текстов, аккордов, табулатур и нот


Pepper - Higher Ground - таба, видео

Регистрация Запомнить меня
Войти через:  Facebook Google Twitter Vk Yandex Mail.ru

Pepper - Higher Ground - таба, видео

Печатать
Просмотров: 68
Intro

e|--------------------------------------------------------------------------|
B|--------------------------------------------------------------------------|
G|--------------------------------------------------------------------------|
D|--------3--------------3-------3---3-5-5-5-5-5-3--------------------------|
A|-5---5-----5-----5---5-----5------------------------5---0-----------------|
E|--------------------------------------------------------------------------|


Verse/ Chorus
e|-x---5---x---5---x----5---x----5-------------------------5-------5---|
B|-x---6---x---6---x----6---x----6---x---12---x---12---x---6---x---6---|
G|-x---7---x---7---x----7---x----7---x---12---x---12---x---7---x---7---|
D|-x---7---x---7---x----7---x----7---x---12---x---12---x---7---x---7---|
A|-x---5---x---5---x----5---x----5---x---10---x---10---x---5---x---5---|
E|---------------------------------------------------------------------|

Pre-Chorus/ Bridge
e|-6--x-x--10--x-x--8---x-x--10--x-x--6--x-x--10--x-x--8---x-x---8--5-|
B|-6--x-x--10--x-x--8---x-x--10--x-x--6--x-x--10--x-x--8---x-x---8--5-|
G|-7--x-x--10--x-x--9---x-x--10--x-x--7--x-x--10--x-x--9---x-x---9--6-|
D|-8--x-x--12--x-x--10--x-x--12--x-x--8--x-x--12--x-x--10--x-x--10--7-|
A|-8--x-x--12--x-x--10--x-x--12--x-x--8--x-x--12--x-x--10--x-x--10--7-|
E|-6- x-x--10--x-x--8---x-x--10--x-x--6--x-x--10--x-x--8---x-x---8--5-|


Leadguitar during 2nd Verse 
e|-------------|-17---------------17---------------17-----------|
B|-----15------|--------18---15--------18---15---------18---15--|
G|-14-------14-|------------------------------------------------|
D|-------------|------------------------------------------------|
A|-------------|------------------------------------------------|
E|-------------|------------------------------------------------|
(the first part is only played once)
 
In the verse after the bridge the Dm Chord is played at the 10th fret two times (listen for it).


Добавлено: 14.09.2013
Другие материалы по этой песне:
  • Аккорды и текст

Страница создана 14.09.2013
http://primanota.ru/pepper/higher-ground-chords.htm
Привет, Гость.
Предлагаем пройти революционный курс по гитаре.
Подарок от PrimaNota.Ru, забирай!