PrimaNota.ru - самый крупный в мире бесплатный архив песенных текстов, аккордов, табулатур и нот


People In Planes - Barracuda - таба, видео

Регистрация Запомнить меня
Войти через:  Facebook Google Twitter Vk Yandex Mail.ru

People In Planes - Barracuda - таба, видео

Печатать
Просмотров: 105
Drop D tuning

Remember, most of the song is in 5/4 with a triplet feel (technically 15/8), then the 
go into 12/8, so keep that in mind when you play it.

Verse
(tri-pu-let)
   1 . . 2 . . 3 . . 4 . . 5 . . | 1 . . 2 . . 3 . . 4 . . 5 . . |
G--------------------------------|-------------------------------|
D--------------------------------|-------------------------------|
A--0-----0-----5---3-----5-------|-0-----0-----3-5-3-----3-5-----|
D--0-----0-----------5-----3b----|-0-----0-----------5-----------|

   1 . . 2 . . 3 . . 4 . . 5 . . | 1 . . 2 . . 3 . . 4 . . |
G--------------------------------|-------------------------|
D--------------------------------|-------------------------|
A--0-----0-----5---3-----5-------|-0-----0-----3-5-3-------|
D--0-----0-----------5-----3b----|-0-----0-----------5-3-5-|

   1 . . 2 . . 3 . . 4 . . 5 . . | 1 . . 2 . . 3 . . 4 . . |
G--------------------------------|-------------------------|
D--------------------------------|-------------------------|
A--5-----5-----5---3-5---3-8-----|-5-----5-----5---3-0---3-|
D--5-----5-----5---3-5---3-8-----|-5-----5-----5---3-0---3-|

   1 . . 2 . . 3 . . 4 . . 5 . . | 1 . . 2 . . 3 . . 4 . . |
G--------------------------------|-------------------------|
D--------------------------------|-------------------------|
A--5-----5-----5---3-5---3-8-----|-7-----7-----7---3h5---7-|
D--5-----5-----5---3-5---3-8-----|-7-----7-----7---3h5---7-|
repeat

Chorus

   1  .  .  2  .  .  3  .  .  4  .  .  |
G--------------------------------------|
D--12-12-12-12-12-12-12-12-12-12-12-12-|
A--12-12-12-12-12-12-12-12-12-12-12-12-|
D--12-12-12-12-12-12-12-12-12-12-12-12-|

   1  .  .  2  .  .  3  .  .  4  .  .  |
G--------------------------------------|
D--10-10-10-10-10-10-10-10-10-10-10-10-|
A--10-10-10-10-10-10-10-10-10-10-10-10-|
D--10-10-10-10-10-10-10-10-10-10-10-10-|

   1 . . 2 . . 3 . . 4 . . |
G--------------------------|
D--8-8-8-8-8-8-8-8-8-8-8-8-|
A--8-8-8-8-8-8-8-8-8-8-8-8-|
D--8-8-8-8-8-8-8-8-8-8-8-8-|

   1 . . 2 . . 3 . . 4 . . |
G--------------------------|
D--7-7-7-7-7-7-7-7-7-7-7-7-|
A--7-7-7-7-7-7-7-7-7-7-7-7-|
D--7-7-7-7-7-7-7-7-7-7-7-7-|
repeat

That's basically the whole song.   Good luck, hope you enjoy playing it as much as I do. ^_^
Добавлено: 23.06.2012
Другие материалы по этой песне:

Страница создана 09.04.2012
http://primanota.ru/people-in-planes/barracuda-chords.htm
Привет, Гость.
Предлагаем пройти революционный курс по гитаре.
Подарок от PrimaNota.Ru, забирай!