PrimaNota.ru - самый крупный в мире бесплатный архив песенных текстов, аккордов, табулатур и нот


Pentangle - Train Song - таба, видео

Регистрация Запомнить меня
Войти через:  Facebook Google Twitter Vk Yandex Mail.ru

Pentangle - Train Song - таба, видео

Печатать
Просмотров: 68
Авторы: Danny Thompson, Jacqui McShee, John Renbourn, Bert Jansch, Terry Cox

Train Song
by Pentangle

Hey Pentangle fans! I know there might be only about five people out there that actually 
want to learn their
songs, but this is for you. I've loved this song since the first time I heard it and 
always wanted to play
it, so recently I decided to just sit down and tab it out. I think I'm pretty close on 
Bert's part, but
John's part get a bit crazy on this song at times, so I haven't tabbed that out. Enjoy!
  *
e-----------------------------------------------------------------------|
B---------------------------------------------------1h3---1-------------|
G-----------------------------------------------0h2-----2---2-----------|
D-------------------------0h1p0---0-0h1p0---0h2---------------0h1p0---0-|
A-0-0-3h5-3h5-3h5-3h5-0-3-------3---------3-------------------------3---|
E-0---------------------------------------------------------------------|
  *     *
e---3-0----------------------------------------5-|
B---------3-0----------------------------------5-|
G---4-2------------------------------------------|
D---------4-2------------------------------------|
A-0-----0-----0h3-5b-----3h5-3h5-0-3h5-3h5-3-0---|
E-0-----0------------3h5-------------------------|

*When he hits the open E and A strings, it sounds
like he's doing a harmonic on the 0 fret or nut.

e-5-5-5-7-8---5-5-5-7-5-|
B-5-5-5-7-8---5-5-5-7-5-|
G-----------------------|
D-----------------------|
A-----------------------|
E-----------------------|

Am Riff 1
e-------------|
B-------------|
G---5-0h2-----|
D---4---------|
A---------0---|
E-5---------0-|

Am Riff 2
e-----------------0-|
B-----------------1-|
G---5---4---3---2-2-|
D---4---2---2---1-3-|
A-----------------3-|
E-5---4---3---2---1-|

E Riff
e-------------|
B-------------|
G---4-0h1-----|
D---2---------|
A---------2---|
E-4---------0-|

Bridge Riff 1
e-------0-----------------------|
B---0h1-----3-3-----5-------3-3-|
G---------------------4---------|
D---2-------4-4---5-----5---4-4-|
A-0-------2-----3---------2-----|
E-------------------------------|

Bridge Riff 2A                                    2B
e--------------------------------0-|---------------------|
B------------------------------1---|---------------------|
G---5-5---4-4---3-3---2-2----2-----|---------------------|
D---4-4---2-2---2-2---1-1---3------|---------------------|
A--------------------------3-------|---9b(10)-7-5-7------|
E-5-----4-----3-----2-----1--------|-0--------------7-6--|

Am Riff 1
Fare thee well, little lady
Train's a-carrying me
Am Riff 2                                                        E Riff x4
One and a-two, three and a-four thousand miles
                 Am Riff 1
Miles from you

Am Riff 1
Lord, I tried my best
To be your man
Am Riff 2                                                               E Riff x4
Can you see, can you feel that burnin' in my soul
                        Am Riff 1
Don't you understand

Bridge:
Bridge Riff 1 x2 (instrumental)
Bridge Riff 1 x4 ("Ba doo da...")
Bridge Riff 2A x1 2B x1
Bridge Riff 1 x4 ("Ba doo da...")
Bridge Riff 2A
E Riff

Am Riff 1
Love is a basket of light
Grasp it so tight
Am Riff 2
Shinin' bright, just ain't right
                                E Riff
To be caught in the night
                                    Am Riff
Caught in the basket of light

Little riff played during the bass stuff at the very end
e--------|
B-10-8-5-|
G-9--7-4-|
D--------|
A--------|
E--------|
Добавлено: 09.08.2015
Другие материалы по этой песне:
  • Аккорды и текст

Страница создана 09.08.2015
http://primanota.ru/pentangle/train-song-chords.htm
Привет, Гость.
Предлагаем пройти революционный курс по гитаре.
Подарок от PrimaNota.Ru, забирай!