PrimaNota.ru - самый крупный в мире бесплатный архив песенных текстов, аккордов, табулатур и нот


Pentangle - The Trees They Do Grow High - таба, видео

Регистрация Запомнить меня
Войти через:  Facebook Google Twitter Vk Yandex Mail.ru

Pentangle - The Trees They Do Grow High - таба, видео

Печатать
Просмотров: 453
Уроки эстрадного вокала в Санкт-Петербурге
Artist: Pentangle
Song: The Trees They C Grow High (Sweet Child 1968)
Tuning: Standard
Timing: 4/4
Transcriber: Phil Champ

Intro and Verse 1 only.


 Intro>
                                                      
E||-----------5--------3----|-----------2-----0-------|
B||--------5--------5-------|-------------------------|
G||-----4--------------4----|--------4----------------|
D||-------------------------|-----5--------------5----|
A||-------------------------|-------------------------|
E||--0-----------0----------|--0-----------0----------|


                                                   
|--0--------0--------------|--0---------------------|
|-----------------3--------|-----------0------------|
|--------4--------------4--|-----0h2----------------|
|-----4--------------4-----|-----2-------------2----|
|--2-----------2-----------|------------------------|
|--------------------------|--0-----------0---------|


                                                    
|-------------------------|--------------------------|
|----------------3--------|-----------3-----------0--|
|-----------0----------0--|-----2------------2/4-----|
|--------0----------0-----|--------0-----------0-----|
|-------------------------|--------------------------|
|--0--3-------------------|--2-----------2-----------|


                                                 
|-----0------------------|-----------------------||
|-----0------------------|-----------------------||
|-------------------0----|-----------------------||
|-------------0h2--------|-----------0-----------||
|------------------------|-----0h2---------------||
|--0-------0-------------|--0-------------3------||



    0:12 Trees they grow                            
||------------------------|-------------------------|
||--------------0---------|-----------2--------3----|
||-----------0-----0------|--------2--------2-------|
||-----2h4----------------|-----2--------------4----|
||------------------------|--0-----------0----------|
||--0--------------3------|-------------------------|


                                                    
|--0--------2h0------------|-------------------------|
|-----------------3--------|--0-------------0--------|
|-----0-----------------0--|----------0-----------0--|
|--------2-----------2-----|-------2-----------2-----|
|--------------------------|-------------------------|
|--0-----------0-----------|--0----------0-----------|


   0:18 Many is the time                           
|-------------------------|-------------------------|
|-----------3-------------|-----------3-------------|
|-----0-----------0-------|-----2-----------2-------|
|--------0-----------0----|--------0-----------0----|
|-------------------------|-------------------------|
|--3-----------3----------|--2-----------2----------|


                                                    
|--0--------2h0------------|-------------------------|
|-----------------3--------|--0-------------0--------|
|-----0-----------------0--|----------0-----------0--|
|--------2-----------2-----|-------2-----------2-----|
|--------------------------|-------------------------|
|--0-----------0-----------|--0----------0-----------|



  0:25 Many an hour                               
|------------------------|-------------------------|
|--------------0---------|-----------2--------3----|
|-----------0------------|--------2--------2-------|
|-----2h4----------------|-----2--------------4----|
|------------------------|--0-----------0----------|
|--0--------------3------|-------------------------|


                                                  
|--0--------2h0------------|-----------------------|
|-----------------3--------|--0----------0---------|
|-----0-----------------0--|--------0--------------|
|--------2-----------2-----|-----2-----------------|
|--------------------------|-----------------------|
|--0-----------0-----------|--0-------------0------|



  0:31 He's young but                            
|------------------------|------------------------|
|-----------3----0-------|--------------3---------|
|-----0------------------|--2-----2/4-------------|
|--------0----------0----|-----0-------------0----|
|------------------------|------------------------|
|--3---------------------|--2---------------------|


                                                    
|-----------5--------3-----|-----------------0-------|
|--------5--------5-----5--|-----------7-------------|
|-----4--------------4-----|--------4----------------|
|--------------------------|-----5--------------5----|
|--------------------------|-------------------------|
|--0-----------0-----------|--0-----------0----------|


                                                    
|--0--------0--------------|--0---------------------||
|-----------------3--------|-----------0------------||
|--------4--------------4--|-----0h2----------------||
|-----4--------------4-----|-----2-------------2----||
|--2-----------2-----------|------------------------||
|--------------------------|--0-----------0---------||
                                                 


     
Добавлено: 17.10.2013
Другие материалы по этой песне:
  • Аккорды и текст

Страница создана 17.10.2013
http://primanota.ru/pentangle/the-trees-they-do-grow-high-chords.htm
Привет, Гость.
Предлагаем пройти революционный курс по гитаре.
Подарок от PrimaNota.Ru, забирай!