PrimaNota.ru - самый крупный в мире бесплатный архив песенных текстов, аккордов, табулатур и нот


Pentangle - Light Flight Aka Take Three Girls Theme - аккорды и текст, видео

Регистрация Запомнить меня
Войти через:  Facebook Google Twitter Vk Yandex Mail.ru

Pentangle - Light Flight Aka Take Three Girls Theme - аккорды и текст, видео

Печатать
Просмотров: 95
Light Flight Aka Take Three Girls Theme
Pentangle
Artist: Pentangle 
Song: Light flight (TV Theme for 'Take three girls')
Tabbed by: David John
30th July 2013

Tuning: Standard

CAPO:3rd fret (Sounds in key of C)

Chord shapes are relative to capo position:
Am9  =  x05500    A5  = 577xxx    Em = 022000   Bm7       = x24232
G13  =  303200    G5  = 355xxx    Bm = x24432   Em7       = 075700
D7   =  xx0212    D5  = x577xx    A  = x02220   Am9(type2)= x07500

****************************************************************************

   Am9                G13               D7               Am9
e|------------------|-----------------|----------------|-------------------|
B|------------------|-----------------|----------------|-------------------|
G|----2-0-h5--4-\2--|----0------2-0---|----------------|----2-0--h5--4-\2--|
D|------------------|------0-h3-----3-|--0--0---4-2----|-------------------|
A|--0---------------|-----------------|-------3-----3--|--0----------------|
E|------------------|--3--------------|----------------|-------------------|

   Am9                G13               D7               Am9
e|------------------|-----------------|----------------|-------------------|
B|------------------|-----------------|----------------|-------------------|
G|----2-0-h5--4-\2--|----0------2-0---|----------------|----2-0--h5--4-\2--|
D|------------------|------0-h3-----3-|--0--0---4-2----|-------------------|
A|--0---------------|-----------------|-------3-----3--|--0----------------|
E|------------------|--3--------------|----------------|-------------------|


e|--------------------------|--------------------------|--------------|
B|--------------------------|--------------------------|--------------|
G|--------------------------|--------------------------|--------------|
D|--------------------------|--------------------------|---4--p2--0---|
A|---0----0--0--------------|---0----0--0--------------|--------------|
E|-------------------3--3---|-------------------3--3---|--------------|


     A5             G5         A5              G5        (D5)
e|--------------------------|--------------------------|--------------|
B|--------------------------|--------------------------|--------------|
G|--------------------------|--------------------------|--------------|
D|------7-----7--\5-----5---|------7-----7--\5-----5---|---4--p2--0---|
A|------7-----7--\5-----5---|------7-----7--\5-----5---|--------------|
E|---5-----5---------3------|--/5-----5---------3------|--------------|


 A5           G5        A5           G5     D5
Let's get a - way, you say, find a better place,
A5              G5        A5            G5     D5
    Miles, and miles, a - way from the city's race,
 Em                  Bm     Em               Bm
Look--- around for someone lying--- in the sunshine,
   A     Bm    A        Bm      A         Bm
Marking time, hear the sighs, close your eyes!


A5              G5          A5              G5         D5
Ba---, da - pa, doo - dah!  Ba---, da - pa, doo - dah, dow!

 A5           G5     A5         G5       D5
| /  /__/  /  /  / | /  /__/  /  /  / |  /__/  /  |
  ^     ^     ^  ^   ^     ^     ^  ^    ^

   A5          G5       A5             G5       D5
Stepping from cloud to cloud, passing years of light,
 A5         G5    A5            G5       D5
Visit the frosty stars in the backward flight,
  Em                Bm       Em             Bm      A     Bm
Souring--- round a vision, never mind the meaning hidden there,
  A     Bm   A         Bm
Moving fast, it won't last!


A5              G5          A5              G5         D5
Ba---, da - pa, doo - dah!  Ba---, da - pa, doo - dah, dow!

 A5           G5     A5         G5       D5
| /  /__/  /  /  / | /  /__/  /  /  / |  /__/  /  |
  ^     ^     ^  ^   ^     ^     ^  ^    ^


 A5         G5       A5           G5    D5
Time passes all too soon, how it rushes by,
A5           G5      A5           G5     D5
    Now a thousand moons are a - bout to die,
Em                  Bm       Em                   Bm
No--- time to re - flect on what--- the time was spent on,
   A     Bm    A      Bm      A      Bm
Nothing left, far a - way, dreamers fade!

A5              G5          A5              G5          D
Ba---, da - pa, doo - dah!  Ba---, da - pa, doo - dah, dow!

   Am7
e|------------------|------------------|
B|-----------1------|----------1-------|
G|---------0---0----|--------0---0-----|
D|-------2-------2--|------2--------2--|
A|--0-0-------------|--0-0-------------|
E|------------------|------------------|

   Am9
e|------------------|------------------|
B|------------------|------------------|
G|----2-0-h5--4-\2--|----2-0-h5--4-\2--|
D|------------------|------------------|
A|--0---------------|--0---------------|
E|------------------|------------------|


  Am9     G13    D7    Am9   Em7     Bm7    Am9        Em7
Strange visions pass me by, winging swiftly past out - side,

Am9  G13     D7   Am9     Am9
 O - ver the wa - ter!  |  /__/  /  /  |
                   ^  ^    ^  ^

Am9                G13                D7                Am9
Ah--------ah,ah!   Ah-----------ah!   Ah------------!   Ah------------!

Em7                Bm7                Am9                Em7
Ah-----------ah!   Ah------------!    Ah--------ah,ah!   Ah------------!

Am9                G13                D7                 Am9
Ah-----------ah!   Ah-----------ah!   Ah,ah--------ah!   Ah,ah---------!


e|--------------------------|--------------------------|--------------|
B|--------------------------|--------------------------|--------------|
G|--------------------------|--------------------------|--------------|
D|--------------------------|--------------------------|---4--p2--0---|
A|---0----0--0--------------|---0----0--0--------------|--------------|
E|-------------------3--3---|-------------------3--3---|--------------|


  A5            G5    A5          G5      D5
Swirling, the waters rise up a - bove my head,
 A5            G5     A5              G5       D5
Gone are the curling mists, how they all have fled,
 Em                Bm    Em               Bm           A    Bm
Look, the door is open, step--- into the space pro - vided there,
A        Bm    A        Bm
Di, oo - dah!  Di, oo - dah!


A5              G5          A5              G5         D5
Ba---, da - pa, doo - dah!  Ba---, da - pa, doo - dah, dow!


e|-----------------------|-----------------------|-------------|
B|-----------------------|-----------------------|-------------|
G|-----------------------|-----------------------|-------------|
D|-----------------------|-----------------------|---4--p2--0--|
A|---0----0--0-----------|---0----0--0-----------|-------------|
E|----------------3--3---|----------------3--3---|-------------|

    Am9
e|------------------|------------------| (Repeat)
B|----0-------------|----0-------------|
G|----5-0-h5--4-\2--|----5-0-h5--4-\2--|
D|----7-------------|----7-------------|
A|--0---------------|--0---------------|
E|------------------|------------------|

    Am9
e|---0---||
B|---0---||
G|---5---||
D|---7---||
A|---0---||
E|-------||
Добавлено: 11.08.2013
Другие материалы по этой песне:
  • Аккорды и текст

Страница создана 11.08.2013
http://primanota.ru/pentangle/light-flight-aka-take-three-girls-theme-chords.htm
Привет, Гость.
Предлагаем пройти революционный курс по гитаре.
Подарок от PrimaNota.Ru, забирай!