PrimaNota.ru - самый крупный в мире бесплатный архив песенных текстов, аккордов, табулатур и нот


Pentangle - Hunting Song - таба, видео

Регистрация Запомнить меня
Войти через:  Facebook Google Twitter Vk Yandex Mail.ru

Pentangle - Hunting Song - таба, видео

Печатать
Просмотров: 139
Уроки эстрадного вокала в Санкт-Петербурге
Авторы: Danny Thompson, Jacqui McShee, John Renbourn, Bert Jansch, Terry Cox

-----------------------------------------------------------------
                    Hunting Song - Pentangle
-----------------------------------------------------------------

Tabbed By : Aeonoptic
e-mail: aeonoptic@gmail.com

Tuning: EADGBe

Bass/Glockenspiel intro
E|----------------|
B|----------------|
G|--------------7-|
D|------7-5---5---|
A|5---5-----5-----|
E|--5-------------|



E|---10-8----------|---10-8-------------|--10-8---------------|---10-8-------------------|
B|10------11--10-11|10------11-10p8-----|10-----10-11--8-10-11|10------10-11--11-10h11-10|
G|-----------------|----------------10-9|---------------------|--------------------------|
D|-----------------|--------------------|---------------------|--------------------------|
A|-----------------|--------------------|---------------------|--------------------------|
E|-----------------|--------------------|---------------------|--------------------------|

(Vocals enter)

E|---10-8----------|---10-8--------------|---10-8-------------|---10-8-------|
B|10------11--10-11|10------11-10p8-10-11|10------10-11--10-11|10-------10-11|
G|-----------------|---------------------|--------------------|--------------|
D|-----------------|---------------------|--------------------|--------------|
A|-----------------|---------------------|--------------------|--------------|
E|-----------------|---------------------|--------------------|--------------|

E|----------------|------------|---10-8---------0-0|---10-8--------------|
B|---8------------|10-8--------|10------11-10p8----|10------10h11-8-10-11|
G|10---10-9----7-7|-----10-9---|----------------9-9|---------------------|
D|----------10----|----------10|-------------------|---------------------|
A|----------------|------------|-------------------|---------------------|
E|----------------|------------|-------------------|---------------------|

E|---10-8----------|---10-8-----------------|---10-8---------------|------------------|
B|10------11--10-11|10------10h11p10-8-10-11|10------10-11--8-10-11|8-----------------|
G|-----------------|------------------------|----------------------|--10-9----9-10-7--|
D|-----------------|------------------------|----------------------|-------11--------7|
A|-----------------|------------------------|----------------------|------------------|
E|-----------------|------------------------|----------------------|------------------|

E|-------------|----------------------------------------|---10-8--------------|
B|10-----------|----------------------------------------|10------11--10-8-----|
G|---12p10\9---|12/14-12-10h12-12/14~--12\10------------|-----------------10-9|
D|-----------12|-----------------------------12-10-10/12|---------------------|
A|-------------|----------------------------------------|---------------------|
E|-------------|----------------------------------------|---------------------|

E|---10-8-----------------|---10-8--------------------|---10-8---------------|
B|10------11p10p8----10-11|10------10h11-10-8-10h11-10|10------10h11--8-10-11|
G|----------------10------|---------------------------|----------------------|
D|------------------------|---------------------------|----------------------|
A|------------------------|---------------------------|----------------------|
E|------------------------|---------------------------|----------------------|

E|---10-8-----------------|------------------------------|-------10-8---------------|
B|10------10h11p10-8-10-11|8----------------8/10-8-------|8/10-8------10-11--8-10-11|
G|------------------------|--10-9-9----7-7---------9-8---|--------------------------|
D|------------------------|---------10-----------------10|--------------------------|
A|------------------------|------------------------------|--------------------------|
E|------------------------|------------------------------|--------------------------|

E|---10-8---------------|---8-10-13--12-13-12-13-12|---10-8------------|-----8-10--12-13-12-13\|
B|10------10-11--8-10-11|10------------------------|10-------11-8-10-11|--10-------------------|
G|----------------------|--------------------------|-------------------|7----------------------|
D|----------------------|--------------------------|-------------------|-----------------------|
A|----------------------|--------------------------|-------------------|-----------------------|
E|----------------------|--------------------------|-------------------|-----------------------|

E|---------------|-----------------------|---------------------------|--------------------|
B|---------------|-----------------------|--------------5-6-5--------|--------------------|
G|10-9--7---5/7-7|-----7h9h10-7-10-7-9---|7-7\5-------5-------7------|--------------------|
D|12-12-0-7-0----|7/10-----------------10|------7-5h7-----------7p5-7|-----------------5h7|
A|---------------|-----------------------|---------------------------|5-8p7-5-7--5h7-8----|
E|---------------|-----------------------|---------------------------|--------------------|

E|--------------|10-10\8-8\5-----|------------------|10-10\8-8-5-10-5|5/6-5--------------|
B|--5-----------|------------10\8|6/8-8-6-6h8-8/10--|----------------|------8-6h8-8/10---|
G|7---5-5/7-5-7~|----------------|-----------------7|----------------|-----------------7~|
D|--------------|----------------|------------------|----------------|-------------------|
A|--------------|----------------|------------------|----------------|-------------------|
E|--------------|----------------|------------------|----------------|-------------------|

E|------------10-10~|--------------------|12-10--8-5|10-10\8-8\5-----|----5-6----------------|
B|8/10-8------------|10~-8p6-/10-6-------|13-10--8-6|------------10\8|6h8-6-8-10-8-6h8-8/10--|
G|-------10-7-------|--------/12-7--9-5-7|----------|----------------|----------------------7|
D|------------------|--------------------|----------|----------------|-----------------------|
A|------------------|--------------------|----------|----------------|-----------------------|
E|------------------|--------------------|----------|----------------|-----------------------|

E|10-10\8-8p5-----|---------------------|-----------10-10~|--------------------|
B|------------10p8|10/11-10-8-6-8-8/10--|8/10-8-----------|10-p8\6--5h6-5------|
G|----------------|--------------------7|-------9-7-------|-----------------5-7|
D|----------------|---------------------|-----------------|---------------7----|
A|----------------|---------------------|-----------------|--------------------|
E|----------------|---------------------|-----------------|--------------------|
 
E|10-10\8-8p5-----|---------------------|10-10\8-8p5-----|---------------------|
B|------------10p8|10/11-10-8-6-8-8/10--|------------10p8|10/11-10-8-6-8-8/10--|
G|----------------|--------------------7|----------------|--------------------7|
D|----------------|---------------------|----------------|---------------------|
A|----------------|---------------------|----------------|---------------------|
E|----------------|---------------------|----------------|---------------------|
 
E|-------------10-10|----------------|13-13p12-12\10-10---|---------------------|
B|8-8/10-8----------|10-p8\6-5-5--8--|------------------10|10h11-10-8-6-8-8/10--|
G|---------9-7------|---------------7|--------------------|--------------------7|
D|------------------|----------------|--------------------|---------------------|
A|------------------|----------------|--------------------|---------------------|
E|------------------|----------------|--------------------|---------------------|
 
E|13-13p12-12\10-10---|---------------------|-----------------10-10|------------------|
B|------------------10|10h11-10-8-6-8-8/10--|8h10-8h10-8-----------|10~--8------------|
G|--------------------|--------------------7|------------10-7------|-------10-9-9~----|
D|--------------------|---------------------|----------------------|----------------10|
A|--------------------|---------------------|----------------------|------------------| 
E|--------------------|---------------------|----------------------|------------------|
 
E|-----------------------|---------------------|-------------------|---------------|
B|-----------------------|----------------5-6-5|-------------------|------------5--|
G|-----7h9h10-7-10-7-9---|7-5h7p5-------5------|7------------------|----------7---5|
D|7h10-----------------10|--------7-5h7--------|--7p5-7------------|------5h7------|
A|-----------------------|---------------------|----------8p7-5-7--|5h7-8----------|
E|-----------------------|---------------------|--------5---------8|---------------|
 
E|------|5---5--5|3---3--3|------5-10-8----------|---------10-8----------|
B|------|6---6--6|3---5--5|----6--------8\6-6p5-6|------10------8\6-6p5-6|
G|7-5-7~|7---7--7|0---5--5|5-7-------------------|---10------------------|
D|------|--------|--------|----------------------|12---------------------|
A|------|--------|--------|----------------------|-----------------------|
E|------|--------|--------|----------------------|-----------------------|
 
E|10-------|--------5---|-7b8-7-5---5|-----------------|7b8-7pbr8-5---5---5-7-8~|
B|-----8---|----5---5---|---------8--|5/6---8---5-8-5/6|------------8-----------|
G|---------|--5---------|------------|--------5--------|------------------------|
D|-------10|7-----------|7-----------|-----------------|------------------------|
A|---------|------------|------------|-----------------|------------------------|
E|---------|------------|------------|-----------------|------------------------|
 
E|5h7------5--5|------10--10---|----8-8--8|---------10-8----------|---------10-8----------|
B|----8~---5--5|------10--10---|----8-8--8|------10------8\6-6p5-6|------10------8\6-6p5-6|
G|-------------|---------------|----------|---10------------------|---10------------------|
D|-------------|---10---------0|12--------|12---------------------|12---------------------|
A|-------------|12-------------|----------|-----------------------|-----------------------|
E|-------------|---------------|----------|-----------------------|-----------------------|
 
E|-----------10|---8--8|---------10-8----------|---------10-8----------|
B|------10---10|---8--8|------10------8\6-6p5-6|------10------8\6-6p5-6|
G|---10--------|---9--9|---10------------------|---10------------------|
D|12-----------|-------|12---------------------|12---------------------|
A|-------------|-------|-----------------------|-----------------------|
E|-------------|10-----|-----------------------|-----------------------|
 
E|----------10|--------------|---|7b8-7-5---5-----|------------------|-----7pbr8-------|
B|------11----|---------10--8|---|--------8----5/6|8-5h6p5---6-8-5/6~|8b10-------8-8h10|
G|---12-------|--------------|9--|----------------|--------7---------|-----------------|
D|------------|12----10------|10-|----------------|------------------|-----------------|
A|10----------|---12---------|12-|----------------|------------------|-----------------|
E|------------|--------------|---|----------------|------------------|-----------------|
 
E|------------------------|---------10--10---|10------------|------------------|------------------|
B|12--13----------10/12---|12--13---10--10---|11------13--13|------------------|------------------|
G|-------12-------------12|12--12-----------0|----12--14--14|---------12--10---|---------12--10---|
D|----------9/10----------|------------------|--------------|---10-12--------12|---10-12--------12|
A|------------------------|------------------|--------------|12----------------|12----------------|
E|------------------------|------------------|--------------|------------------|------------------|
 
Then a couple of empty bars

(very quiet here, nearly indistinguishable, some fragments may be missing)
E|--------------------|--------------------|------------|--------------|
B|--------------------|--------------------|------------|---5----------|
G|------7-------------|------7-------------|---------4--|--------------|
D|----7----7-5\3-3p2-3|----7----7-5\3-3p2-0|5---3-5----5|7----7--------|
A|--5-----------------|--5-----------------|--5---------|--------------|
E|5-------------------|5-------------------|------------|--------------|
 
E|7b8-7-5---5----|------------|7b8-7-5-3h5|---5------5h7--|5--8--------|10--10|8-------8---8-|
B|--------8---5/6|8\6---8-5/6~|-----------|8--5h6--------8|5--8-8p6p5--|10--10|10------10--10|
G|---------------|----7-------|-----------|-------5-------|-----------7|------|10-9/10-9---9-|
D|---------------|------------|-----------|---------------|------------|------|--------------|
A|---------------|------------|-----------|---------------|------------|------|--------------|
E|---------------|------------|-----------|---------------|------------|------|--------------|
 
E|------------10|8-------------|---------10|--------------|---------10|8-------------|
B|---------10---|--10\8--------|------10---|8h10p8--------|------10---|--10p8--------|
G|------10------|-------10p9-10|---10------|-------10p9-10|---10------|-------10p9-10|
D|10-12---------|--------------|12---------|--------------|12---------|--------------|
A|--------------|--------------|-----------|--------------|-----------|--------------|
E|--------------|--------------|-----------|--------------|-----------|--------------|
 
                                                         "Lala"
E|---------10|8-------------|10----8|10--10-10----|-----|--------|5----5---5|--5------|
B|------10---|--10p8--------|-------|----------10~|----6|6-5-6--5|5--8---8--|8---8-6-5|
G|---10------|-------10p9-10|-------|-------------|7---7|--------|----------|---------|
D|12---------|--------------|-------|-------------|----7|--------|----------|---------|
A|-----------|--------------|-------|-------------|----5|--------|----------|---------|
E|-----------|--------------|-------|-------------|-----|--------|----------|---------|
 
E|-------|-------|--------|----------------|--------|-----------------|
B|-------|-------|--------|----------------|10--8-10|8-10--8-10-8-----|
G|7~---5~|7--7---|7--7-7-9|9-10-9-10-9-7h9~|--------|-------------10-9|
D|-------|-----7~|--------|----------------|--------|-----------------|
A|-------|-------|--------|----------------|--------|-----------------|
E|-------|-------|--------|----------------|--------|-----------------|
 
"Lala" Round

(Glockenspiel/bass intro)

E|---10-8---------------|---10-8-------------|---10-8-----------------|
B|10------10-11--8-10-11|10------10-11--10-11|10------10-11-10-8-10-11|
G|----------------------|--------------------|------------------------|
D|----------------------|--------------------|------------------------|
A|----------------------|--------------------|------------------------|
E|----------------------|--------------------|------------------------|
 
E|-----10-8----------|----------------|5-------------|---10-8----------------|
B|--10------10-11--11|------5--5---5--|--8-6p5-------|10------10-11--8-10----|
G|-----------------10|5-7-5----5h7---5|--------7--5/7|-----------------------|
D|0------------------|----------------|--------------|--------------------+12|
A|-------------------|----------------|--------------|-----------------------|
E|-------------------|----------------|--------------|-----------------------|
 
E|------10-12--12-13-12-13-12\|-------10-8--------------|------10-8---------------|
B|---10-----------------------|----10------10-11-8-10-11|---10------10-11--8-10-11|
G|----------------------------|-------------------------|-------------------------|
D|12--------------------------|+12----------------------|12-----------------------|
A|----------------------------|-------------------------|-------------------------|
E|----------------------------|-------------------------|-------------------------|
 
E|10-10--------------------|----------------|---------------------|-----------------|
B|10-11-10-----------------|----------------|---------------------|-----------------|
G|------12------10---------|12/14-12p10-9---|12/14-12-10h12-12/14~|12\10------------|
D|---------+12--10h12-12---|--------------10|---------------------|------12-10-10/12|
A|-----------------------12|----------------|---------------------|-----------------|
E|-------------------------|----------------|---------------------|-----------------|
 
E|---10-8-----------|---10-8-------------|---10-8------------|---10-8------10|
B|10------11-10-8---|10------10h11--10-11|10------10-11-10-11|10------8-10-11|
G|----------------10|--------------------|-------------------|---------------|
D|------------------|--------------------|-------------------|---------------|
A|------------------|--------------------|-------------------|---------------|
E|------------------|--------------------|-------------------|---------------|
 
E|---10-8--------------|-----------------------|------------------|---10-8-------------|
B|10------10h11p10-8-10|-----------------------|10-8--------------|10------11-10p8-----|
G|---------------------|10-12-10---------------|-----10-9---------|----------------10-9|
D|---------------------|---------10-10/12-12---|----------10-10/12|--------------------|
A|---------------------|---------------------12|------------------|--------------------|
E|---------------------|-----------------------|------------------|--------------------|
 
E|------10-12-13----------|---10-8---------------|---------10-8---------------|
B|---10----------10-11--11|10------10-11--8-10-11|------10------10-11--8-10-11|
G|------------------------|----------------------|----------------------------|
D|12----------------------|----------------------|10/12-----------------------|
A|------------------------|----------------------|----------------------------|
E|------------------------|----------------------|----------------------------|
 
E|------10-8-----------------|---------------------------------|---------------------------|
B|---10------10h11p10-8-10-11|----------10---------------------|---------------------------|
G|---------------------------|10-----------12-10h12-12/14-12/14|12\10----------------------|
D|12-------------------------|---12-10-------------------------|------12-10--10h12p10h12p10|
A|---------------------------|---------------------------------|---------------------------|
E|---------------------------|---------------------------------|---------------------------|
 

| /  slide up
| \  slide down
| h  hammer-on
| p  pull-off
| ~  vibrato
| +  harmonic
| x  Mute note
Добавлено: 30.03.2016
Другие материалы по этой песне:
  • Аккорды и текст

Страница создана 30.03.2016
http://primanota.ru/pentangle/hunting-song-chords.htm
Привет, Гость.
Предлагаем пройти революционный курс по гитаре.
Подарок от PrimaNota.Ru, забирай!