PrimaNota.ru - самый крупный в мире бесплатный архив песенных текстов, аккордов, табулатур и нот


Pentangle - Cruel Sister - аккорды и текст, таба, видео

Регистрация Запомнить меня
Войти через:  Facebook Google Twitter Vk Yandex Mail.ru

Pentangle - Cruel Sister - аккорды и текст, таба, видео

Печатать
Просмотров: 615
Уроки эстрадного вокала в Санкт-Петербурге
Cruel Sister
Pentangle
 A5(Am)                   Am                      G
|-----------------------|-----------------------|-----------------------|
|---------------------0-|-1-----0---1-----3p1---|-0---------0-----------|
|-2-----2---------2-----|---2---------------2---|-------0-------------0-|
|---2-------2-----------|-----2-------2-------2-|-----0-------0---0h2---|
|-0---0-------0---------|-0-------0-------0-----|-----------------------|
|(5)------------------3-|-----------------------|-3-------3-------------|
  1   .   2   .   3   .   1   .   2   .   3   .   1   .   2   .   3   .
            There lived a la-dy by the north sea shore           lay the
.
 Am(7)                    Em(7)                  Am (add4)
|-0----(0)--------------|-0---------3-----------|-----------------------|
|-----------3---1-------|---0---0-----------3---|-3---------1-----3-1---|
|------------------(0)--|-----0-------0-------0-|-------2---------------|
|-----2-------2-------2-|-2-------2-------2-----|-----2-------2-------2-|
|-0-------0-------0-----|-----------------------|-0-------0-------0-----|
|-----------------------|-----------------------|-----------------------|
  1   .   2   .   3   .   1   .   2   .   3   .   1   .   2   .   3   .
 bend    to the  bonny  broom       two daughters were       the babes she
.
  G              (N.C.)           (strum) Am(5)
|----------------|-------------------------------|----------------------||
|-0---------0----|-------------------(0)---------|--------------------0-||
|-------0--------|2---4-5-7---5---4-0(0)--2------|2-----2---------2-----||
|-----0-------0--|2---4---4---5---4-0(0)------2--|--2-------2-----------||
|----------------|0------------------------------|----0-------0---------||
|-3-------3------|-------------------(3?)-5------|5-------------------3-||
  1   .   2   .   1   .   2   .   3   .   4   .   1   .   2   .   3   .
 bore             Fa lala la  la  la-la   la   la-laa        As  one grew...
Добавлено: 30.03.2016
Другие материалы по этой песне:
  • Аккорды и текст

Страница создана 21.05.2012
http://primanota.ru/pentangle/cruel-sister-chords.htm
Привет, Гость.
Предлагаем пройти революционный курс по гитаре.
Подарок от PrimaNota.Ru, забирай!