PrimaNota.ru - самый крупный в мире бесплатный архив песенных текстов, аккордов, табулатур и нот


Pentagram - For Those Who Died Alone - таба, видео

Регистрация Запомнить меня
Войти через:  Facebook Google Twitter Vk Yandex Mail.ru

Pentagram - For Those Who Died Alone - таба, видео

Печатать
Просмотров: 78
Hereby I declare, that the following is completely my own work!!!

     

      ilmay Karamanlar (FeNiX)

      ikaramanlar@hotmail.com

 

      Pentagram - For Those Who Died Alone (Intro)

                (Album: Unspoken)

      Tab from Ilmay Karamanlar  ikaramanlar@hotmail.com>

     

      / - slide up

      \ - slide down

      p - pull off

      h - hammer on

     

 

                  (play this part 2 times)

     
e------------------------------------------------------------------------I

     
B-----8-8h10-10--10-8-8------------------------------10------------------I

     
G-/10-------------------10-10/12-12--/9-10-10/12-12-----10-10p9-9h10 10--I

     
D------------------------------------------------------------------------I

     
A------------------------------------------------------------------------I

     
E------------------------------------------------------------------------I

     

 

      e-/8-10-------/8-10-10-8-8--/5-6/8-8--10--------------------I

      B-------10-10----------------------------11-11-10-10-10\----I

      G-----------------------------------------------------------I

      D-----------------------------------------------------------I

      A-----------------------------------------------------------I

      E-----------------------------------------------------------I

 

 

      e-/8-10-------/8-10-10-8-8--/5-8-8-8--10--------------------I

      B-------10-10----------------------------11-11-10-10-10\----I

      G-----------------------------------------------------------I

      D-----------------------------------------------------------I

      A-----------------------------------------------------------I

      E-----------------------------------------------------------I

 

 

      e-----------------------------------------------------------I

      B-/8-10-------/8-10-10-8-8--/5-6/8-8--10--------------------I

      G-------10-10----------------------------10-10-9-9h10-10----I

      D-----------------------------------------------------------I

      A-----------------------------------------------------------I

      E-----------------------------------------------------------I

 

 

      e-----------------------------------------------------------I

      B-/8-10-------/8-10-10-8-8--/5-6/8-8--5---------------------I

      G-------10-10---------------------------7-7-5-5h7-7---------I

      D-----------------------------------------------------------I

      A-----------------------------------------------------------I

      E-----------------------------------------------------------I

        


     
Добавлено: 22.10.2013
Другие материалы по этой песне:

Страница создана 29.03.2012
http://primanota.ru/pentagram/for-those-who-died-alone-chords.htm
Привет, Гость.
Предлагаем пройти революционный курс по гитаре.
Подарок от PrimaNota.Ru, забирай!