PrimaNota.ru - самый крупный в мире бесплатный архив песенных текстов, аккордов, табулатур и нот


Pennywise - Something Wrong With Me - аккорды и текст, таба, видео

Регистрация Запомнить меня
Войти через:  Facebook Google Twitter Vk Yandex Mail.ru

Pennywise - Something Wrong With Me - аккорды и текст, таба, видео

Печатать
Просмотров: 130
Уроки эстрадного вокала в Санкт-Петербурге
Something Wrong With Me
Pennywise
BAND: Pennywise
SONG: Something Wrong With Me
AUTHOR: Tom Johnson (inferno_x_2001@hotmail.com)

I know Pennywise only have one guitarist but this song has 2 parts, though 
it can
be made only one (which is how i play it) it's no different really.
h=Hammer
/=slide
~=wobble string


Intro/Chorus
¯¯¯¯¯¯¯¯¯¯¯¯
Part 1            Part 2 (strummed thru intro)
guitar 1          guitar 2

E|------------|   E|-----|  You actually play part 2
B|------------|   B|-----|  right through the intro.
G|---5---7----|   G|-----|  This needs 2 guitars, but
D|-3-5-5-7-7--|   D|-7---|  you can just play the A
A|-3-3-5-5-7--|   A|-7---|  at the end of part 1 which
E|-1---3---5--|   E|-5---|  sounds fine.
The chords above are played once for the first 2 times,
Then strummed for the 2nd two.

Verse
¯¯¯¯¯
Part 1
First note unmuted, rest palm muted.
E|-------------------------------------------------------|
B|16x-16x-14x--2x-16x-16x-16x--8x--8x-16x----------------|
G|-----5-------7-----------5-------7---------------------|
D|-7---5---5---7---7---7---5---5---7---7-----------------|
A|-7---3---5---5---7---7---3---5---5---7-----------------|
E|-5-------3-------5---5-------3-------5--pickslide------|
Guitar 1 plays the chords only once each, and guitar 2
actually does the muted strums.  During the pick- slide
(which guitar 1 does) guitar 2 finishes the last mutes.
Pickslide starts as soon as the last A is played by guitar 1.

Verse pt2/Pre-Chorus
¯¯¯¯¯¯¯¯¯¯¯¯¯¯¯¯¯¯¯¯
A|-----------------------------------------------|
B|-----------------------------------------------|
G|---------555-555--------777(7)-----------------|
D|-777-777-555-555-555(5)-777(7)-777(7)-777(7)---|
A|-777-777-333-333-555(5)-555(3)-777(7)-777(7)---|
E|-555-555---------333(3)--------555(5)-555(5)---|

Chorus
¯¯¯¯¯¯
Same as the 2nd two bars of intro.

Post-Chorus Bridge:
¯¯¯¯¯¯¯¯¯¯¯¯¯¯¯¯¯¯¯
E|-------------------|
B|-------------------|
G|-------7-----------|
D|-3--5--7-----------|
A|-3--5--5-----------|
E|-1--3-----pickslide|

After the second chorus, there is another part that goes like this:

E|---------|
B|---------|
G|---5-7---|
D|-7-5-7-7-|
A|-7-3-5-7-|
E|-5-----5-|

Eventually comes to a fully muted verse, then the solo.
I cant work out the solo but this is some (or close enough)

E|-55-8-7-5---5-8-7h8h7-5-something-----------------------------------|
B|-55-8-7-5---5-8-7h8h7-5-----I---------------------------------------|
G|-55-8-7-5---5-8-7h8h7-5---cant-------10/17~~15~~-something----------|
D|------------5-----------work out-----^^-----------------------------|
A|----------------------------Thats ten not 1-0-----------------------|
E|---------------------------------------------------------pickslide--|

Outro Chord
¯¯¯¯¯¯¯¯¯¯¯
D|-7-7-7-7--|
A|-7-7-7-7--|
E|-5-5-5-5--|

Comments/Tips/Corrections etc to inferno_x_2001@hotmail.com
     
Добавлено: 10.08.2013
Другие материалы по этой песне:

Страница создана 11.03.2012
http://primanota.ru/pennywise/something-wrong-with-me-chords.htm
Привет, Гость.
Предлагаем пройти революционный курс по гитаре.
Подарок от PrimaNota.Ru, забирай!