PrimaNota.ru - самый крупный в мире бесплатный архив песенных текстов, аккордов, табулатур и нот


Pennywise - One Reason - текст песни, таба, видео

Регистрация Запомнить меня
Войти через:  Facebook Google Twitter Vk Yandex Mail.ru

Pennywise - One Reason - текст песни, таба, видео

Печатать
Просмотров: 109
Artist: Pennywise
Song: One Reason
Album: Reason To Believe (2008)

. -> PM

Drop D

Intro
e|-----------------------------------|(x4)
B|-----------------------------------|
G|-----------------------------------|
D|-0-0-2h3-0-0-3h5-0-0-6p5-0-0-3h5---|
A|-0-0-2h3-0-0-3h5-0-0-6p5-0-0-3h5---|
D|-0-0-2h3-0-0-3h5-0-0-6p5-0-0-3h5---|
   . .     . .     . .     . . 

Verse
e|-----------------------------|
B|-----------------------------|
G|-----------------------------|
D|-0-0--0-0--0-0--0-0--0-0-2h3-|
A|-0-0--0-0--0-0--0-0--0-0-2h3-|
D|-0-0--0-0--0-0--0-0--0-0-2h3-|
   . .  . .  . .  . . 
e|---------------------------------|
B|---------------------------------|
G|---------------------------------|
D|-0-0--0-0--0-0--0-0--0-0-2h3-5p3-|
A|-0-0--0-0--0-0--0-0--0-0-2h3-5p3-|
D|-0-0--0-0--0-0--0-0--0-0-2h3-5p3-|
   . .  . .  . .  . .
e|-----------------------------|
B|-----------------------------|
G|-----------------------------|
D|-0-0--0-0--0-0--0-0--0-0-2h3-|
A|-0-0--0-0--0-0--0-0--0-0-2h3-|
D|-0-0--0-0--0-0--0-0--0-0-2h3-|
   . .  . .  . .  . .
e|-----------------|
B|-----------------|
G|-----------------|
D|-0-0--0-0--0-0---|
A|-0-0--0-0--0-0---|
D|-0-0--0-0--0-0---|
   . .  . .  . .

Pre-Chorus (intro)

Chorus (x3)

e|---------------------------------------------------|
B|---------------------------------------------------|
G|--33333333333333333-555555555555555----------------|
D|--33333333333333333-555555555555555-00000000000000-|
A|--11111111111111111-333333333333333-00000000000000-|
D|------------------------------------00000000000000-|

-----------------------------------|
-----------------------------------|
--10-10-9---9----------10-10-9---9-|
--x--x--x---x--000000--x--x--x---x-|
--8--8--7---7--000000--8--8--7---7-|
---------------000000--------------|


e|---------------------------------------------------|
B|---------------------------------------------------|
G|--33333333333333333-555555555555555----------------|
D|--33333333333333333-555555555555555-00000000000000-|
A|--11111111111111111-333333333333333-00000000000000-|
D|------------------------------------00000000000000-|

-----------------------------------|
-----------------------------------|
--10-10-9---9----------10-10-9---9-|
--x--x--x---x--000000--x--x--x---x-|
--8--8--7---7--000000--8--8--7---7-|
---------------000000--------------|


e|---------------------------------------------------|
B|---------------------------------------------------|
G|--33333333333333333-555555555555555----------------|
D|--33333333333333333-555555555555555-00000000000000-|
A|--11111111111111111-333333333333333-00000000000000-|
D|------------------------------------00000000000000-|


-Intro

-Verse

-Pre-chorus

-Chorus

Bridge
(picking)
e|-------------------------------------------------|(x2)
B|-------------------------------------------------|
G|---7777777-----14-14-14-14-14-13-13-13-13-13-----|
D|---xxxxxxx-----xxxxxxxxxxxxxxxxxxxxxxxxxxxxx-----|
A|---5555555-----12-12-12-12-12-11-11-11-11-11-----|
D|-------------------------------------------------|

e|---------------------------------------------|
B|---------------------------------------------|
G|---------------------------------------------|
D|---00-------00-------00-------00-------00----|
A|---00-------00-------00-------00-------00----|
D|---00-------00-------00-------00-------00----|

e|---------------------------|(x2)
B|---------------------------|
G|---------------------------|
D|---00--00--00--00--0000----|
A|---00--00--00--00--0000----|
D|---00--00--00--00--0000----|

e|-----------------|
B|-----------------|
G|-----------------|
D|-----00000000----|
A|-----00000000----|
D|-----00000000----|


-Chorus

-Intro (x3)


End Chorus
e|--------------------------|
B|--------------------------|
G|--------------------------|
D|-0-0--0-0--0-0--0h6-5-3-0-|
A|-0-0--0-0--0-0--0h6-5-3-0-|
D|-0-0--0-0--0-0--0h6-5-3-0-|
Добавлено: 08.09.2013
Другие материалы по этой песне:

Страница создана 08.06.2012
http://primanota.ru/pennywise/one-reason-chords.htm
Привет, Гость.
Предлагаем пройти революционный курс по гитаре.
Подарок от PrimaNota.Ru, забирай!