PrimaNota.ru - самый крупный в мире бесплатный архив песенных текстов, аккордов, табулатур и нот


Pennywise - No Reason Why - аккорды и текст, таба, бас-таба, видео

Регистрация Запомнить меня
Войти через:  Facebook Google Twitter Vk Yandex Mail.ru

Pennywise - No Reason Why - аккорды и текст, таба, бас-таба, видео

Печатать
Просмотров: 169
No Reason Why
Pennywise
I still can't figure out the Intro.
Other then that, the song has only 2 parts, the first is played at the start
and the end, and the second is played through out the rest of the song.
Quite simple actually.

Part 1:		[e--------------------------------------------------------
B--------------------------------------------------------
G--------------10----9------------------9----10----12----
D----12--------10----9---10---12--------9----10----12----
A----12---------8----7---10---12--------7----8-----10----
E----10------------------8----10-------------------------

Part 2:		e---------------------------------------------------
B---------------------------------------------------
G-----7-----------10--------------------------------
D-----7-----7-----10-----10-------------------------
A-----5-----7-----8------10-------------------------
E-----------5------------8--------------------------]
Добавлено: 03.08.2013
Другие материалы по этой песне:
  • Аккорды и текст

Страница создана 26.04.2012
http://primanota.ru/pennywise/no-reason-why-chords.htm
Привет, Гость.
Предлагаем пройти революционный курс по гитаре.
Подарок от PrimaNota.Ru, забирай!