PrimaNota.ru - самый крупный в мире бесплатный архив песенных текстов, аккордов, табулатур и нот


Pennywise - My God - аккорды и текст, таба, бас-таба, видео

Регистрация Запомнить меня
Войти через:  Facebook Google Twitter Vk Yandex Mail.ru

Pennywise - My God - аккорды и текст, таба, бас-таба, видео

Печатать
Просмотров: 220
My God
Pennywise
Title      : My God
Interpret  : Pennywise 
Album      : Land of the Free (#7)
tabbed by  : Simon Klausberger (dumpspit@hotmail.com)

This song is not the easiest but if you take your time you'll figure out
what i mean. For all those who don't no what harm means: to put your finger
on the strings but don't press so you can make a natural harmonic. ( Hope
the description isn't wrong, if so pleeze mail!)
 
 H=HARM
 P=Palm MUte
       
  INTRO	           
e|-------------------------------------------| 
H|-------------------------------------------|
G|-------------------------------------------|               
D|3-444555666-66665555--3-444555666-66665555-|
A|3-444555666-66665555--3-444555666-66665555-|
E|1-222333444-44443333--1-222333444-44443333-|
    .........             .........
    HHHHHHHHH             HHHHHHHHH

  MAIN RIFF (I think itґs easier to just downstroke this part)
e|---------------------------------------|
H|---------------------------------------|
G|----6------3-55-3------6------6-8-65---|
D|33--6-0-66-3-55-3-0-33-6-0-66-6-8-65-0-|
A|33--4-0-66-1-33-1-0-33-4-0-66-4-6-43-0-|
E|11----0-44--------0-11---0-44--------0-|

  VERSE (main Riff palm muted!!)
e|-----------------------------|
H|-----------------------------|
G|-----------------------------|
D|----66----3555----66----8666-|
A|3333446666133333334466666444-|
E|1111--4444----1111--4444-----|
  ............................
  PPPPPPPPPPPPPPPPPPPPPPPPPPPP
 CHORUS= 1 1/2x MAIN RIFF + 1x INTRO!

the interlude is the only part of this song that is very easy:

 INTERLUDE (better hope you've been chosen to be saved...)
e|-------------------------------|
H|-------------------------------|
G|66666666666688-----------------| 2x
D|666666666666883333333333333333-|
A|444444444444663333333333333333-|
E|--------------1111111111111111-|

 INTERLUDE PART 2 (They don't mind...)
e|-------------------------------------------------|
H|-------------------------------------------------|
G|6666666633333333----------------6666666688888888-|
D|666666663333333333333333666666666666666688888888-|
A|444444441111111133333333666666664444444466666666-|
E|----------------1111111144444444-----------------|

Any questions, comments, or anything else pleeze mail me!
Blink 182 and  Pennywise fuckin rule!
Добавлено: 25.06.2012
Другие материалы по этой песне:

Страница создана 27.02.2012
http://primanota.ru/pennywise/my-god-chords.htm
Привет, Гость.
Предлагаем пройти революционный курс по гитаре.
Подарок от PrimaNota.Ru, забирай!