PrimaNota.ru - самый крупный в мире бесплатный архив песенных текстов, аккордов, табулатур и нот


Pennywise - Let Us Hear Your Voice - текст песни, таба, бас-таба, видео

Регистрация Запомнить меня
Войти через:  Facebook Google Twitter Vk Yandex Mail.ru

Pennywise - Let Us Hear Your Voice - текст песни, таба, бас-таба, видео

Печатать
Просмотров: 192
New Pennywise song

x dead note
. palm mute
~ let ring
h hammer on
p pull off
b bend

Intro

e|--------------------------------------------------------|
B|--------------------------------------------------------|
G|--111111-13-11-10-111111-13-6-88888888--10101010--------|
D|--x-x-x--x--x--x--x-x-x--x--x-xxxxxxxx--xxxxxxxx--------|
A|--9-9-9--11-9--8--9-9-9--11-4-66666666--88888888--------|
E|--------------------------------------------------------|

e|--------------------------------------|
B|--------------------------------------|
G|--11/10/11/10---13b~~-----------------|
D|--x/-x-/x-/x-----x--------------------|
A|--9/-8-/9-/8----11--------------------|
E|--------------------------------------|

Verse

e|--------------------------------------------------------------|
B|--------------------------------------------------------------|
G|----------------6-6666666666--4-4444444444--------------------|
D|--4-4444444444--6-6666666666--4-4444444444--4-4444444444------| x2
A|--4-4444444444--4-4444444444--2-2222222222--4-4444444444------|
E|--2-2222222222------------------------------2-2222222222------|
      PM........    ..........    ..........    ..........

Pre-chorus:

e|--------------------------------------------------------|
B|--------------------------------------------------------|
G|--8888888888-------------111111111----------------------| x2
D|--8888888888--999999999--111111111--111111111111--------|
A|--6666666666--999999999--999999999--111111111111--------|
E|--------------777777777-------------999999999999--------|
                                      .. .. .. ..                 
Pre-chorus end:


e|----------------------|
B|----------------------|
G|----------------------|
D|---9~~----------------|
A|---9~~----------------|
E|---7~~----------------|

Chorus:

e|-----------------------------------------------------------------|
B|-----------------------------------------------------------------|
G|--1111111111-----------------------------------------------------|
D|--1111111111--1111111111--13131313131313131313--9999999999-------| x4
A|--9999999999--1111111111--13131313131313131313--9999999999-------|
E|--------------9999999999--11111111111111111111--7777777777-------|

SOLO

e|---------------------------------------------------------------|
B|--11b-14b------------------11b---------------------------------|
G|--13b----13-11-10-11-1011--13b-13-15b-13-11--10h11p10----------|
D|---------------------------------------------------------------| 
A|---------------------------------------------------------------|
E|---------------------------------------------------------------|
                                              really fast part start

e|------------------------------------------------------------------------|
B|-----------------------------------7--------11-------9-11-7-9-11-7-9----|
G|--8h10p8-------6h8p6------4h6444-----6--------11------------------------|
D|---------------------------------------8--------11----------------------| 
A|------------------------------------------------------------------------|
E|------------------------------------------------------------------------|
really        fast             part

e|---------------------------------------------------------------|
B|---------------------------------------------------------------|
G|---------------------------------------------------------------|
D|--9-999999999--------------------------------------------------| 
A|--9-999999999--------------------------------------------------|
E|--7-777777777--------------------------------------------------|
      .........

Outro:

e|---------------------------------------------------------------|
B|---------------------------------------------------------------|
G|--1111111111---------------------------------------------------|
D|--1111111111--1111111111--99999999999999999999-----------------|  x2
A|--9999999999--1111111111--99999999999999999999-----------------|
E|--------------9999999999--77777777777777777777-----------------|

end

e|-------------------------|
B|-------------------------|
G|--11---------------------|
D|--11---------------------| 
A|--9----------------------|
E|-------------------------|

Thanks.

Have fun, punk for ever!
Добавлено: 14.11.2013
Другие материалы по этой песне:
  • Аккорды и текст

Страница создана 25.09.2013
http://primanota.ru/pennywise/let-us-hear-your-voice-chords.htm
Привет, Гость.
Предлагаем пройти революционный курс по гитаре.
Подарок от PrimaNota.Ru, забирай!