PrimaNota.ru - самый крупный в мире бесплатный архив песенных текстов, аккордов, табулатур и нот


Pennywise - Homesick - текст песни, таба, бас-таба, видео

Регистрация Запомнить меня
Войти через:  Facebook Google Twitter Vk Yandex Mail.ru

Pennywise - Homesick - текст песни, таба, бас-таба, видео

Печатать
Просмотров: 147
      h - hammer on 
      p - pull off 
      b - bend string up
      r - release bend
      / - slide up
      \ - slide down
      v - vibrato
      t - tap (with strumming hand)
      x - muted, struck string
      ~ - let ring
      * - Palm muted

Song : Homesick
Band : Pennywise
Album : Unknown Road



Intro           
e--------|----|
B--------|----|
G--------|----|
D--5~----|-5--|
A--5~----|-5--|
E--3~----|-3--|

Verse A
e------------------|------------------------|
B------------------|------------------------|
G------------------|--8---5-5-5-5-5-5-5-5---|
D-----5-5-5-5-5-5--|--8---5-5-5-5-5-5-5-5---|
A-----5-5-5-5-5-5--|--6---3-3-3-3-3-3-5-3---|
E-----3-3-3-3-3-3--|------------------------|

e------------------|------------------------|
B------------------|------------------------|
G------------------|--8--5-5-5-5---------5--|
D-----5-5-5-5-5-5--|--8--5-5-5-5---8-8-8-5--|
A-----5-5-5-5-5-5--|--6--3-3-3-3---8-8-8-3--|
E-----3-3-3-3-3-3--|---------------6-6-6----|

Verse B
e------------------|------------------------|
B------------------|------------------------|
G------------------|--8---5-5-5-5-5-5-5-5---|
D-----5-5-5-5-5-5--|--8---5-5-5-5-5-5-5-5---|
A-----5-5-5-5-5-5--|--6---3-3-3-3-3-3-5-3---|
E-----3-3-3-3-3-3--|------------------------|

e------------------|------------------------|
B------------------|------------------------|
G------------------|--8--5-5-5-5------------|
D-----5-5-5-5-5-5--|--8--5-5-5-5---8--------|
A-----5-5-5-5-5-5--|--6--3-3-3-3---8--------|
E-----3-3-3-3-3-3--|---------------6--------|

Chorus
e--------------------|----------------------|
B--------------------|----------------------|
G--------------------|--8-8-8-8--5-5-5-5----|
D--5-5-5-5--8-8-8-8--|--8-8-8-8--5-5-5-5----|
A--5-5-5-5--8-8-8-8--|--6-6-6-6--3-3-3-3----|
E--3-3-3-3--6-6-6-6--|----------------------|

e------------------|------------------------|
B------------------|------------------------|
G----------8-8-8-8-|-10-10-10-10--------5---|
D-5-5-5-5--8-8-8-8-|-10-10-10-10--8-8-8-5---|
A-5-5-5-5--6-6-6-6-|-8--8--8--8---8-8-8-3---|
E-3-3-3-3----------|--------------6-6-6-----|

e------------------|------------------------|
B------------------|------------------------|
G----------8-8-8-8-|------------5-------5---|
D-5-5-5-5--8-8-8-8-|-8-8-8-8----5---8---5---|
A-5-5-5-5--6-6-6-6-|-8-8-8-8----3---8---3---|
E-3-3-3-3----------|-6-6-6-6--------6-------|

e------------------|------------------------|
B------------------|------------------------|
G----------8-8-8-8-|-10-10-10-10-10-10-10-10|
D-5-5-5-5--8-8-8-8-|-10-10-10-10-10-10-10-10|
A-5-5-5-5--6-6-6-6-|-8--8--8--8--8--8--8--8-|
E-3-3-3-3----------|------------------------|

Bridge                                    
e------------------|------------------------|
B------------------|------------------------|
G------------------|------------------------|
D-5-5-5-5-5-5-5-5--|------------------------| X2
A-5-5-5-5-5-5-5-5--|----3-------------------|
E-3-3-3-3-3-3-3-3--|--6---------------------|
  * * * * * * * *
e------------------|------------------------|
B------------------|------------------------|
G------------------|------------------------|
D-5-5-5-5-5-5-5-5--|-------5--5--5----------|
A-5-5-5-5-5-5-5-5--|----3--5--5--5----------|
E-3-3-3-3-3-3-3-3--|--6----3--3--3----------|
  * * * * * * * *

Solo
e------------------|------------------------|
B-----3------------|------------2-----------|
G-5b7---5b7r5-3----|-----5h7p5-----5--------|
D---------------5-3|-5h8--------------------|
A------------------|------------------------|
E------------------|------------------------|                  
               
e------------------|------------------------|
B-3--1-------------|------------------------|
G-------3--0-------|------------------------|
D------------------|-3h5p3---3--------------|
A------------------|-------5----------------|
E------------------|------------------------|

e------------------|------------------------|
B------------------|--3---6b8---------------|
G-------------3-5--|------------------------|
D---------3-5------|------------------------|
A-----3h5----------|------------------------|
E-3h6--------------|------------------------| 

e------------------|------------------------|
B------------------|------------------------|
G-5b7 5b7 5p3------|------------------------|
D------------------|-5~---------------------|
A------------------|------------------------|
E------------------|------------------------|

Backing for Solo + Interlude
e------------------|------------------------|
B------------------|------------------------|
G----------8-8-----|--5-5-5-5---------------|
D-5-5------8-8-----|--5-5-5-5---------------|
A-5-5------6-6-----|--3-3-3-3---------------|
E-3-3--------------|------------------------|

Song:
Intro
Verse A
Verse B
Verse A
Verse B
Chorus
Bridge
Verse A
Verse B
Verse A
Verse B
Chorus
Bridge
Solo + Backing for solo
Interlude
Verse A
Verse A
Chorus
Bridge

Добавлено: 26.06.2012
Другие материалы по этой песне:
  • Аккорды и текст

Страница создана 11.03.2012
http://primanota.ru/pennywise/homesick-chords.htm
Привет, Гость.
Предлагаем пройти революционный курс по гитаре.
Подарок от PrimaNota.Ru, забирай!