PrimaNota.ru - самый крупный в мире бесплатный архив песенных текстов, аккордов, табулатур и нот


Pennywise - From The Ashes - таба, видео

Регистрация Запомнить меня
Войти через:  Facebook Google Twitter Vk Yandex Mail.ru

Pennywise - From The Ashes - таба, видео

Печатать
Просмотров: 60
----------------------------pEnNyWiSe--------------------------------------
------------------------>from the ashes<------------------------------------
---------------------------by:Wobbler---------------------------------------
--------------------------all in EADGBe-------------------------------------

this is the whole album tab¡i tried to include the rythm but listen to the cd for its right 
updadet version!!!-„³EnjoY! 

I|now i know

intro A
e|-------------------------------------------------------------------------|
B|-------------------------------------------------------------------------|
G|-9~-12-12--7-7-7--12-12---------9~-12-12--7-7-7--12-12--14-14-14---------|
D|-9~-12-12--7-7-7--12-12--7-7-7--9~-12-12--7-7-7--12-12--14-14-14---------|
A|-7~-10-10--5-5-5--10-10--7-7-7--7~-10-10--5-5-5--10-10--12-12-12---------|
E|-------------------------5-5-5-------------------------------------------|
      
intro B (x2)  
e|--------------------------------------------|
B|--------------------------------------------|
G|-9\7-9-9-99-999-12-12--7-7-7--12-12---------|
D|-9\7-9-9-99-999-12-12--7-7-7--12-12--7-7-7--|
A|-7\5-7-7-77-777-10-10--5-5-5--10-10--7-7-7--|
E|-------------------------------------5-5-5--|

e|------------------------------------------------|
B|------------------------------------------------|
G|-9\7-9-9-99-999-12-12--7-7-7--12-12--14-14-14---|
D|-9\7-9-9-99-999-12-12--7-7-7--12-12--14-14-14---|
A|-7\5-7-7-77-777-10-10--5-5-5--10-10--10-10-10---|
E|------------------------------------------------|

verse "woke up to a perfect day no hope in sight..." (x2)
e|-------------------------------------------------------------------------|
B|-------------------------------------------------------------------------|
G|-9\7-9-99-1212-7-77-----------5---7--9\7-9-99-1212-7-77-----------55-5-77|
D|-9\7-9-99-1212-7-77-7-7-7-7-7-5-5-7--9\7-9-99-1212-7-77-777777777-55-5-77|
A|-7\5-7-77-1010-5-55-7-7-7-7-7---3-5--7\5-7-77-1010-5-55-777777777-33-3-55|
E|--------------------5-5-5-5-5---------------------------555555555--------|
pm                                                         ........

pre-chorus
e|---------------------------------------|
B|---------------------------------------|
G|--9--5--9--12--9--5--7-----------------|
D|--9--5--9--12--9--5--7-\\\pickslide\\\-|
A|--7--3--7--10--7--3--5-----------------|
E|---------------------------------------|

chorus "now i know..." (not very sure about the strumming)
e|---------------------------------------------------------|
B|---------------------------------------------------------|
G|-99999999999999-------------------------------5-5-555-7~-|
D|-99999999999999-55555555555555-77777777777777-5-5-555-7~-|
A|-77777777777777-55555555555555-77777777777777-3-3-333-5~-|
E|----------------33333333333333-55555555555555------------|

e|--------------------------------------------------------------|
B|--------------------------------------------------------------|
G|-99999999999999-------------------------------5-5-555-7-7-777-|
D|-99999999999999-55555555555555-77777777777777-5-5-555-7-7-777-|
A|-77777777777777-55555555555555-77777777777777-3-3-333-5-5-555-|
E|----------------33333333333333-55555555555555-----------------|

intro B (only one time!)
verse
pre-chorus
chorus

bridge A              |bridge B "and still you here them..." (x2)
e|--------------------|----------------------------------------------------|
B|------------------8~|----------------------------------------------------|
G|-99999------99999---|9-999--------99-999--------99-999--------555-5-7-777|
D|-99999-(x3)-99999---|9-999-XXXXXX-99-999-XXXXXX-99-999-XXXXXX-555-5-7-777|
A|-77777------77777---|7-777-XXXXXX-77-777-XXXXXX-77-777-XXXXXX-333-3-5-555|
E|--------------------|------XXXXXX--------XXXXXX--------XXXXXX------------|

pre-chorus
chorus

outro x3   | end on
e|-----7---|-----|
B|------8--|-----|
G|-999---7-|--9--|
D|-999-----|--9--|
A|-777-----|--7--|
E|---------|-----|
____________________________________________________________________________

II|god saves the usa

intro A                     |intro B (x2)
e|--------------------------|--------------------------------------|
B|--------------------------|--------------------------------------|
G|-----------\\\pickslide\\\|----3---5----8---10----8888------5555-|
D|-12~--12~-----------------|-55-3-3-5-55-8-8-10-55-8888-8888-5555-|
A|-10~--10~-----------------|-55-1-3-3-55-6-8--8-55-6666-8888-3333-|
E|--------------------------|-33---1---33---6----33------6666------|

fill
e|----------------------------|
B|----------------------------|
G|----------------------------|
D|-5-5555555/12-12-1212-------|
A|-5-5555555/10-10-1010-------|
E|-3-3333333------------15\\\-|
pm   .......

verse A "god you must be kidding me..." (x2)
e|----------------------------------------------|
B|----------------------------------------------|
G|-----------------------8-88888888-5-5555-8-10-|
D|-5-55555555-8-88888888-8-88888888-5-5555-8-10-|
A|-5-55555555-8-88888888-6-66666666-3-3333-6--8-|
E|-3-33333333-6-66666666------------------------|
pm   ........   ........   ........   ....

e|--------------------------------------------|
B|--------------------------------------------|
G|-----------------------8-88888888-5-55-8-10-|
D|-5-55555555-8-88888888-8-88888888-5-55-8-10-|
A|-5-55555555-8-88888888-6-66666666-3-33-6--8-|
E|-3-33333333-6-66666666----------------------|
pm   ........   ........   ........   

verse B "whats the CIA and the NRA..." (x2)                            
e|-----------------------------------|
B|-----------------------------------|
G|---------------------------88-1010-|
D|-5-5555-8-8888-10-10101010-88-1010-|
A|-5-5555-8-8888-10-10101010-66--8-8-|
E|-3-3333-6-6666--8--8-8-8-8---------|

pre-chorus
e|-------------------------------|
B|-------------------------------|
G|-------------------------------|
D|-55-5-55~-/12121212------------|
A|-55-5-55~-/10101010------------|
E|-33-3-33~----------------------|

chorus A "all we need is more factories pumping filth into the sky..."
e|----------------------------------------------------------------|
B|----------------------------------------------------------------|
G|--------888888--------101010101010---------888888---------------|
D|-555555-888888-888888-101010101010--555555-888888-888888-333333-|
A|-555555-666666-888888--8-8-8-8-8-8\-555555-666666-888888-333333-|
E|-333333--------666666---------------333333--------666666-111111-|

chorus B "and apathys the national disease..." (x2)
e|-----------------------------------|
B|-----------------------------------|
G|---------------------------88-1010-|
D|-5-5555-8-8888-10-10101010-88-1010-|
A|-5-5555-8-8888-10-10101010-66--8-8-|
E|-3-3333-6-6666--8--8-8-8-8---------|

fill
verse A "the irony of liberty..."
verse B "f**k the industry..." 
pre-chorus
chorus A
chorus B
verse B 
quiet part

interlude "government hypocrisy...american idolatry..." (x2)
e|------------------------------------------------------------|
B|------------------------------------------------------------|
G|-----------------------------------------------8-88-10-1010-|
D|-\\\pickslide\\\-55-5555-88-8888-1010-10101010-8-88-10-1010-|
A|-----------------55-5555-88-8888-1010-10101010-6-66--8--8-8-|
E|-----------------33-3333-66-6666--8-8--8-8-8-8--------------|

chorus A
chorus B
verse B

outro
e|---------------------|
B|---------------------|
G|---------------------|
D|-55555555/1212-10-12-|
A|-55555555/1010--8-10-|
E|-33333333------------|
pm ........
____________________________________________________________________________

III|something to change

intro guitar one (x2)
e|-------------------------------------------------------|
B|-------------------------------------------------------|
G|-------------------------------------------------------|
D|-222-2---------555-5---------222-2---------555-5-77-55-|
A|-222-2-3-2-0-2-555-5-5-3-2-3-222-2-3-2-0-2-555-5-77-55-|
E|-000-0---------333-3---------000-0---------333-3-55-33-|

intro guitar two (comes in at 2nd time of intro guitar one)
e|----------------------------------------|
B|----------------------------------------|
G|----------------------------22-2-44-2---|
D|-33-333-1/33-333-1/33-333-1-------------|
A|----------------------------------------|
E|----------------------------------------|

verse A "another boring day..." (x2)
e|---------------------------|
B|---------------------------|
G|----55----77----55---------|
D|-22-55-55-77-22-55-55-7755-|
A|-22-33-55-55-22-33-55-7755-| 
E|-00----33----00----33-5533-|

verse B "its like i dont want to try..."
e|---------------------------|
B|---------------------------|
G|----55----77----55---------|
D|-22-55-55-77-22-55-55-7755-|
A|-22-33-55-55-22-33-55-7755-| 
E|-00----33----00----33-5533-|
pm .. .. .. .. .. .. ..

verse A "got nothin left to prove..." (x1)

pre-chorus "im waiting for my own salvation..."
e|----------------------------------|
B|----------------------------------|
G|----------555-7-5--------55-5-7---|
D|-99-999-9-555-7-5-99-999-55-5-7---|
A|-99-999-9-333-5-3-99-999-33-3-5---|
E|-77-777-7---------77-777----------|

chorus "cause i...need something to change..."
e|--------------------------------------------------------|
B|--------------------------------------------------------|
G|----55----77----55--------------55----77----55----------|
D|-22-55-55-77-22-55-55-5-775--22-55-55-77-22-55-55-5-7-5-|
A|-22-33-55-55-22-33-55-5-775--22-33-55-55-22-33-55-5-7-5-|
E|-00----33----00----33-3-553--00----33----00----33-3-5-3-|

intro
whole verse(A-B-A) "a never ending game..."
pre-verse
chorus

solo rythm (x4)
e|----------------------------|
B|----------------------------|
G|----55----77----55----------|
D|-22-55-55-77-22-55-55-5-7-5-|
A|-22-33-55-55-22-33-55-5-7-5-|
E|-00----33----00----33-3-5-3-|

quiet part "i need something to change..."
chorus-end
____________________________________________________________________________

IV|waiting

intro guitar one (x2)
e|----------------------------------------------------------|
B|----------------------------------------------------------|
G|-9------------------9-7-77777777777777-9------------------|
D|-9-9-99999999999999-9-7-77777777777777-9-9-99999999999999-|
A|-7-9-99999999999999-7-5-55555555555555-7-9-99999999999999-|
E|---7-77777777777777----------------------7-77777777777777-|
                      at the end second time...
e|-------------------|------------------------------|
B|-------------------|------------------------------|
G|-9-----------------|-9----------------------------|
D|-9-7-777777777777--|-9-7-7777777--\\\pickslide\\\-|
A|-7-7-777777777777--|-7-7-7777777------------------|
E|---5-555555555555--|---5-5555555------------------|

intro guitar two (x2)
e|----10-12-14-12-10----10-12-14-15-14----10-12-14-12-10-------------------|
B|-12----------------12----------------12----------------121212-12b-r--12--|
G|-------------------------------------------------------------------------|
D|-------------------------------------------------------------------------|
A|-------------------------------------------------------------------------|
E|-------------------------------------------------------------------------|

verse "my day is here...everything in my mind is clear..."
e|----------------------------------------------------------|
B|----------------------------------------------------------|
G|-9------------------9-7-77777777777777-9------------------|
D|-9-9-99999999999999-9-7-77777777777777-9-9-99999999999999-|
A|-7-9-99999999999999-7-5-55555555555555-7-9-99999999999999-|
E|---7-77777777777777----------------------7-77777777777777-|
pm     ..............     ..............     ..............
                     
e|-------------------|
B|-------------------|
G|-9-----------------|
D|-9-7-777777777777--|
A|-7-7-777777777777--|
E|---5-555555555555--|
pm     ............

e|----------------------------------------------------------|
B|----------------------------------------------------------|
G|-9------------------9-7-77777777777777-9------------------|
D|-9-9-99999999999999-9-7-77777777777777-9-9-99999999999999-|
A|-7-9-99999999999999-7-5-55555555555555-7-9-99999999999999-|
E|---7-77777777777777----------------------7-77777777777777-|
pm     ..............     ..............     ..............

e|-----------------------------------------|
B|-----------------------------------------|
G|-9---------------------------------------|
D|-9-7-777777777777777777777777-77777777-7-|
A|-7-7-777777777777777777777777-77777777-7-|
E|---5-555555555555555555555555-55555555-5-|


chorus "waiting!...looking for another way..." (x2)
e|-------------------------------------------------------------------------|
B|-------------------------------------------------------------------------|
G|------------------7-77777777777777---------------------------------------|
D|-9-99999999999999-7-77777777777777-7-77777777777777-5-55555555555555-----|
A|-9-99999999999999-5-55555555555555-7-77777777777777-5-55555555555555-----|
E|-7-77777777777777------------------5-55555555555555-3-33333333333333-----|

intro "waiting..."(only one time!)
verse "everythings changed..."
chorus

fill 
e|------------|
B|------------|
G|------------|
D|-5-5-5-5-55-|
A|-5-5-5-5-55-|
E|-3-3-3-3-33-|

solo rythm-play chorus+fill

interlude                   
e|-------------------------------------------------------------------------|
B|-------------------------------------------------------------------------|
G|-------7---7-------------------9-------7---7-----------------------------|
D|-9---9-7---7-7---7-5-5-5-5--5--9-9---9-7---7-7---7-5-5-5-5--5-5-5-5-5--5-|
A|-9---9-5---5-7---7-5-5-5-5--5--7-9---9-5---5-7---7-5-5-5-5--5-5-5-5-5--5-|
E|-7---7-------5---5-3-3-3-3--3----7---7-------5---5-3-3-3-3--3-3-3-3-3--3-|

e|------------|
B|------------|
G|------------|
D|-55555555-5-|
A|-55555555-5-|
E|-33333333-3-|

chorus x2
fill

end on
e|------|
B|------|
G|-9----|
D|-9-9--|
A|-7-9--|
E|---7--|
____________________________________________________________________________

V|salvation

intro
e|-------------------------------------------------------------------------|
B|-------------------------------------------------------------------------|
G|-88-888-4----6----88-888-4---4-6---6-88-888-88-888-888888-8--------------|
D|-88-888-4-44-6-66-88-888-4-4-4-6-6-6-88-888-88-888-888888-8-\\pickslide\\|
A|-66-666-2-44-4-66-66-666-2-4-2-4-6-4-66-666-66-666-666666-6--------------|
E|----------22---44----------2-----4---------------------------------------|

verse A (x2) 2nd:"i...want your salvation..."
e|-----------------------------------------------------------------------|
B|-----------------------------------------------------------------------|
G|-88-888-4----6----88-888-4---4-6---6-88-888-4----6----88-888-1111-1313-|
D|-88-888-4-44-6-66-88-888-4-4-4-6-6-6-88-888-4-44-6-66-88-888-1111-1313-|
A|-66-666-2-44-4-66-66-666-2-4-2-4-6-4-66-666-2-44-4-66-66-666--9-9-1111-|
E|----------22---44----------2-----4------------22---44------------------|

verse B "i just wanna live my life..."
e|--------------------------------------------------------------------|
B|--------------------------------------------------------------------|
G|-8888888-4---4-6---6-8888888-44-4-6-4-6-8888888-4---4-6---6-8888888-|
D|-8888888-4-4-4-6-6-6-8888888-44-4-6-4-6-8888888-4-4-4-6-6-6-8888888-|
A|-6666666-2-4-2-4-6-4-6666666-22-2-4-2-4-6666666-2-4-2-4-6-4-6666666-|
E|-----------2-----4--------------------------------2-----4-----------|
pm .......             .......            .......             .......

e|-----------|
B|-----------|
G|-1111-1313-|
D|-1111-1313-|
A|--9-9-1111-|
E|-----------|

fill in A
e|--------------------|
B|--------------------|
G|-88-888-8-----------|
D|-88-888-8-----------|
A|-66-666-6-11-9-7-6--|
E|-----------9-7-5-4--|


chorus "i want your salvation..."                                       
e|-------------------------------------------|
B|-------------------------------------------|
G|-88-888-8-1111-111111-11-44-444-4-66-66611-|
D|-88-888-8-1111-111111-11-44-444-4-66-66611-|
A|-66-666-6--9-9--9-9-9--9-22-222-2-44-444-9-|
E|-------------------------------------------|

e|------------------------------------|
B|------------------------------------|
G|-88-888-8-1111-111111-11-44-444-4-6-|
D|-88-888-8-1111-111111-11-44-444-4-6-|
A|-66-666-6--9-9--9-9-9--9-22-222-2-4-|
E|------------------------------------|

fill in A

fill in B
e|--------------------------|
B|--------------------------|
G|-88-888-8-----------------|
D|-88-888-8-\\\pickslide\\\-|
A|-66-666-6-----------------|
E|--------------------------|

verse A "i want some indication..." (only one time!) 
verse B "we just want to live our lives..."
fill in A
chorus (end with pickslide)

bridge A "...being meeee"
e|--------------------------------------------------------------|
B|--------------------------------------------------------------|
G|-88888---------------88888----------------88888---------------|
D|-88888-444-66666-999-88888-444-66666-9999-88888-444-66666-999-|
A|-66666-444-66666-999-66666-444-66666-9999-66666-444-66666-999-|
E|-------222-44444-777-------222-44444-7799-------222-44444-777-|

e|-------------------------|
B|-------------------------|
G|-------------------------|
D|-88888888-11111111111111-|
A|-88888888--9-9-9-9-9-9-9-|
E|-66666666----------------|

bridge B "what you want..you might never get it..."(x2)
e|--------------------------------------------------------------|
B|--------------------------------------------------------------|
G|-88888---------------88888----------------88888---------------|
D|-88888-444-66666-999-88888-444-66666-9999-88888-444-66666-999-|
A|-66666-444-66666-999-66666-444-66666-9999-66666-444-66666-999-|
E|-------222-44444-777-------222-44444-7799-------222-44444-777-|
pm .....     .....     .....     ..... .... .....     .....
e|-------------------------|
B|-------------------------|
G|-------------------------|
D|-88888888-11111111111111-|
A|-88888888--9-9-9-9-9-9-9-|
E|-66666666----------------|
pm ........

fill in A
chorus x2

"...stop!"
outro A (x3)
e|-------------------|
B|-------------------|
G|-8888888888888-666-|
D|-8888888888888-666-|
A|-6666666666666-444-|
E|-------------------|

outro B
e|-------------|
B|-------------|
G|-88888-666-8-|
D|-88888-666-8-|
A|-66666-444-6-|
E|-------------|
pm       ...

____________________________________________________________________________

VI|look who you are

intro guitar one (x2)
e|------------------------------------------------------------------|
B|------------------------------------------------------------------|
G|------------------------------------------------------------------|
D|-777777777777-333333333333-101010101010101010101010-555555555555--|
A|-777777777777-333333333333-101010101010101010101010-555555555555--|
E|-555555555555-111111111111--8-8-8-8-8-8-8-8-8-8-8-8-333333333333--|

intro guitar two (x2)
e|---------------------------------------------------------------|
B|---------------------------------------------------------------|
G|---------------------------------------------------------------|
D|---------------------------------------------------------------|
A|-7-5-3-5-3-2-3~--7-5-3-5-3-2-3~--7-5-3-5-3-2-2~--5-3-2h3p2-0~--|
E|---------------------------------------------------------------|

verse guitar one "asleep at the wheel..."
e|------------------------------------------------------------------|
B|------------------------------------------------------------------|
G|------------------------------------------------------------------|
D|-777777777777-333333333333-101010101010101010101010-5555555-------|
A|-777777777777-333333333333-101010101010101010101010-5555555-------|
E|-555555555555-111111111111--8-8-8-8-8-8-8-8-8-8-8-8-3333333-------|
pm ............ ............ ........................ .......

e|----------------------------------------------------------------|
B|----------------------------------------------------------------|
G|----------------------------------------------------------------|
D|-777777777777-333333333333-101010101010101010101010-5555555-5---|
A|-777777777777-333333333333-101010101010101010101010-5555555-5---|
E|-555555555555-111111111111--8-8-8-8-8-8-8-8-8-8-8-8-3333333-3---|

verse guitar two "because you..."
e|-----------------|
B|-----------------|
G|-----------------|
D|-----------------|
A|-5-3-2h3p2--0~---|
E|-----------------|

chorus guitar one "look who you are..."
e|------------------------------------------------------------------|
B|------------------------------------------------------------------|
G|------------------------------------------------------------------|
D|-777777777777-333333333333-101010101010101010101010-555555555555--|
A|-777777777777-333333333333-101010101010101010101010-555555555555--|
E|-555555555555-111111111111--8-8-8-8-8-8-8-8-8-8-8-8-333333333333--|

e|--------------------------------------------------------------------|
B|--------------------------------------------------------------------|
G|--------------------------------------------------------------------|
D|-777777777777-333333333333-101010101010101010101010-55555555555-5---|
A|-777777777777-333333333333-101010101010101010101010-55555555555-5---|
E|-555555555555-111111111111--8-8-8-8-8-8-8-8-8-8-8-8-33333333333-3---|

chorus guitar two same as verse guitar two "...look who you are...."
intro (only one time)
verse "a rat in a cage..."
chorus

bridge guitar one (x2)
e|----------|-----------------------------------------------------------|
B|only first|-----------------------------------------------------------|
G|---time---|-----------------------------------------------------------|
D|-XX-X-XX--|-77777-XXX-77777-33333-XXX-33333-1010101010-XXX-1010101010-|
A|-XX-X-XX--|-77777-XXX-77777-33333-XXX-33333-1010101010-XXX-1010101010-|
E|-XX-X-XX--|-55555-XXX-55555-11111-XXX-11111--8-8-8-8-8-XXX--8-8-8-8-8-|

e|-----------------|
B|-----------------|
G|-----------------|
D|-55555-XXX-55555-|
A|-55555-XXX-55555-|
E|-33333-XXX-33333-|

bridge guitar two
e|-------------------------------------------------------------|
B|-------------------------------------------------------------|
G|-44444--4444--55555--5555--77777--7777--99999--9999-7-99999--|
D|-22222--2222--33333--3333--55555--5555--77777--7777-5-77777--|
A|-------------------------------------------------------------|
E|-------------------------------------------------------------|

e|---------------------------------------------------------------------|
B|---------------------------------------------------------------------|
G|-999-11-1212121212--12121212-1414141414--14141414--16161616161616----|
D|-777--9-1010101010--10101010-1212121212--12121212--14141414141414\\\-|
A|---------------------------------------------------------------------|
E|---------------------------------------------------------------------|


interlude "so you just give up..."
e|-------------------------------------------------------------------|
B|-------------------------------------------------------------------|
G|-------------------------------------------------------------------|
D|-7777-7-777-77--3333-3-333-33--10101010-10-101010-1010--5555-5~-55-|
A|-7777-7-777-77--3333-3-333-33--10101010-10-101010-1010--5555-5~-55-|
E|-5555-5-555-55--1111-1-111-11---8-8-8-8--8--8-8-8--8-8--3333-3~-33-|
pm ....   ...     ....   ...     ........    ......       ....

e|-------------------------------------------------------------------|
B|-------------------------------------------------------------------|
G|-------------------------------------------------------------------|
D|-7777-7-777-77--3333-3-333-33--10101010-10-101010-1010--555555555--|
A|-7777-7-777-77--3333-3-333-33--10101010-10-101010-1010--555555555--|
E|-5555-5-555-55--1111-1-111-11---8-8-8-8--8--8-8-8--8-8--333333333--|
pm ....   ...     ....   ...     ........    ......

e|-------------|
B|-------------|
G|-------------|
D|-555555555-5-|
A|-555555555-5-|
E|-333333333-3-|
pm .........

chorus

outro "it'll never be ok..."
e|----------------|
B|----------------|
G|----------------|
D|-555555555-5--7-|
A|-555555555-5--7-|
E|-333333333-3--5-|
pm .........
____________________________________________________________________________

VII|falling down

intro guitar two (x8)
e|------------------------------------|
B|------------------------------------|
G|------------------------------------|
D|-10101010------131311111111---------|
A|----------1111--------------1313-88-|
E|------------------------------------|

intro guitar one (comes in third time intro guitar two)
e|-------------------------------------------------------------------------|
B|-------------------------------------------------------------------------|
G|-------------------------------------------------------------------------|
D|33--1111--33--66-88--33333333-1111111111111111-33333333-11111111-13131313|
A|33--1111--33--66-88--33333333-1111111111111111-33333333-11111111-13131313|
E|11---9-9--11--44-66--11111111--9-9-9-9-9-9-9-9-11111111--9-9-9-9-11111111|

e|-------------------------------------------------------------------------|
B|-------------------------------------------------------------------------|
G|-------------------------------------------------------------------------|
D|3-3333-1111111111111111-3-3333-1313131313131313-3-3333-1111111111111111--|
A|3-3333-1111111111111111-3-3333-1313131313131313-3-3333-1111111111111111--|
E|1-1111--9-9-9-9-9-9-9-9-1-1111-1111111111111111-1-1111--9-9-9-9-9-9-9-9--|

e|---------------|
B|---------------|
G|---------------|
D|-66666-888-6-8-|
A|-66666-888-6-8-|
E|-44444-666-4-6-|

verse guitar two - same as intro "falling down...everyday..." (x4)

verse guitar one "cant find a place..." 
e|-------------------------------------------------------------------------|
B|-------------------------------------------------------------------------|
G|-------------------------------------------------------------------------|
D|-3-33---------111111-1313-11--3-33---------666-88-66\-3-33---------111111|
A|-3-33-11-88-6-111111-1313-11--3-33-11-88-6-666-88-66\-3-33-11-88-6-111111|
E|-1-11--9-66-4--9-9-9-1111--9--1-11--9-66-4-444-66-44\-1-11--9-66-4--9-9-9|

e|-----------------------------------------------------------|
B|-----------------------------------------------------------|
G|-----------------------------------------------------------|
D|-1313-11--3-33-------6-666-88-6-3-33333333-\\\pickslide\\\-|
A|-1313-11--3-33-11-88-6-666-88-6-3-33333333-----------------|
E|-1111--9--1-11--9-66-4-444-66-4-1-11111111-----------------|
pm                                  ........

chorus "falling everyday..."(x2)                                                            
e|----------------------------------------------------------|
B|----------------------------------------------------------|
G|---------------666666666666--------------88888888888-8/10-|
D|-3-33333333333-666666666666-666666666666-88888888888-8/10-|
A|-3-33333333333-444444444444-666666666666-66666666666-6/-8-|
E|-1-11111111111--------------444444444444------------------|

fill in
e|-------------------------------------------------------------------|
B|-------------------------------------------------------------------|
G|-------------------------------------------------------------------|
D|-10101010------131311111111----------10101010------131311111111-11-|
A|----------1111--------------1313-88-----------1111-----------------|
E|-------------------------------------------------------------------|

verse "without a sound..."
chorus

bridge guitar one (x2)                                      at the end first
e|---------------------------------------------------------|---------------|
B|---------------------------------------------------------|---------------|
G|--------------88------------------------------------88---|---------------|
D|-33-3-33-11-6-88-88-33-3-33-11-6-88-66-33-3-33-11-6-88-88|-33-3-6-3~-----|
A|-33-3-33-11-6-66-88-33-3-33-11-6-88-66-33-3-33-11-6-66-88|-33-3-6-3~-----|
E|-11-1-11--9-4----66-11-1-11--9-4-66-44-11-1-11--9-4----66|-11-1-4-1~-----|
at the end second..
e|-------------|
B|-------------|
G|-------------|
D|-5-555555-5~-|
A|-5-555555-5~-|
E|-3-333333-3~-|
pm   ......

bridge guitar two (x3)|at the end first|at the end of bridge...
e|--------------------|/9-999999br-9764|---------------------------|
B|--------------------|----------------|---------------------------|
G|----------6-88------|not 100%--------|---------------------------|
D|-3\1/3-33--6--88----|------but fits--|-555555555-\\\pickslide\\\-|
A|--------------------|----------------|---------------------------|
E|--------------------|----------------|---------------------------|

chorus

outro guitar one
e|--------------------------|
B|--------------------------|
G|--------------------------|
D|-33-333-66-333-33-33-33-3-|
A|-33-333-66-333-33-33-33-3-|
E|-11-111-44-111-11-11-11-1-|
pm ..     ..     ..    ..

outro guitar two
e|-------------------------------|
B|-------------------------------|
G|-------------------------------|
D|-55555555-77777777-99999999-11-|
A|-------------------------------|
E|-------------------------------|
____________________________________________________________________________

VIII|holiday in the sun

intro                             
e|-------------------------------------------------------------------------|
B|-------------------------------------------------------------------------|
G|-9-999999----------7-777777-----------9-999999----------7-777777---------|
D|-9-999999-5-555555-7-777777-9-999999--9-999999-5-555555-7-777777-9-7-9-12|
A|-7-777777-5-555555-5-555555-9-999999--7-777777-5-555555-5-555555-9-7-9-12|
E|----------3-333333----------7-777777-----------3-333333----------7-5-7-10|
pm   ......   ......   ......   ......    ......   ......   ......

verse A "how does it feel..."(x3)                               
e|----------------------------------|
B|----------------------------------|
G|-99-999--------77-777-------------|
D|-99-999-55-555-77-777-99-9-7-9/12-|
A|-77-777-55-555-55-555-99-9-7-9/12-|
E|--------33-333--------77-7-5-7/10-|

verse B "your only prayer..."
e|----------------------------------|
B|----------------------------------|
G|-99-999--------77-777-------------|
D|-99-999-55-555-77-777-99-99~------|
A|-77-777-55-555-55-555-99-99~------|
E|--------33-333--------77-77~------|

pre-chorus "theres no way..."
e|---------------------------------------------------------------|
B|---------------------------------------------------------------|
G|---------------------------------------------------------------|
D|-7-7-77-7-7-77-7-7-77-7-7-77-9-9-99-9-9-99-9-9-\\\pickslide\\\-|
A|-7-7-77-7-7-77-7-7-77-7-7-77-9-9-99-9-9-99-9-9-----------------|
E|-5-5-55-5-5-55-5-5-55-5-5-55-7-7-77-7-7-77-7-7-----------------|
pm . . .. . . .. . . .. . . .. . . .. . . ..

chorus A "isn't this fun?..."                         
e|-------------------------------|
B|-------------------------------|
G|-99-99--------77-77------------|
D|-99-99-555-55-77-77-999-7-9-12-|
A|-77-77-555-55-55-55-999-7-9-12-|
E|-------333-33-------777-5-7-10-|

chorus B "a life so serene..."
e|----------------------------|
B|----------------------------|
G|-99-99--------77-77---------|
D|-99-99-555-55-77-77-999-999-|
A|-77-77-555-55-55-55-999-999-|
E|-------333-33-------777-777-|

chorus A "yeah we got it all..."

chorus C "were all oblivious..."
e|--------------------------------|
B|--------------------------------|
G|-99-99--------77777777----------|
D|-99-99-555-55-77777777-99999999-|
A|-77-77-555-55-55555555-99999999-|
E|-------333-33----------77777777-|

intro
verse "everyday in the USA..."
pre-chorus
whole chorus (A-B-A-C)
solo rythm-same as verse

bridge "isn't it nice..." (x2)
e|---------------------------|
B|---------------------------|
G|-555555555555-777777777777-|
D|-555555555555-777777777777-|
A|-333333333333-555555555555-|
E|---------------------------|

fill in "...nice for you and me..."
e|------------|
B|------------|
G|-77777777-7-|
D|-77777777-7-|
A|-55555555-5-|
E|------------|
pm ........ .

chorus
outro-same as intro
____________________________________________________________________________

IX|this is only a test

intro acoustic guitar A "this is only a test..."(x3)
e|-0-00-00--2-22-22--0-00-00--0-00-00---|
B|-0-00-00--3-33-33--1-11-11--1-11-11---|
G|-0-00-00--2-22-22--2-22-22--0-00-00---|
D|-2-22-22--0-00-00--2-22-22--2-22-22---|
A|-2-22-22-----------0-00-00--3-33-33---|
E|-0-00-00------------------------------|

intro acoustic guitar B "ruderless and powerless..."
e|-0-00-00--2-22-22--0-00-00--0~-|
B|-0-00-00--3-33-33--1-11-11--1~-|
G|-0-00-00--2-22-22--2-22-22--0~-|
D|-2-22-22--0-00-00--2-22-22--2~-|
A|-2-22-22-----------0-00-00--3~-|
E|-0-00-00-----------------------|

verse "this is only a test..."(x4)add last
e|-------------------------------|--time--|
B|-------------------------------|--------|
G|--------777777--------555555---|-555555-|
D|-222222-777777-777777-555555---|-555555-|
A|-222222-555555-777777-333333---|-333333-|
E|-000000--------555555----------|--------|

pre-chorus+chorus "and were all alone..."
e|--------------------------------------------------------------------|
B|--------------------------------------------------------------------|
G|--------------777777777777-555555--------777777777777-555555--------|
D|-555555555555-777777777777-555555-555555-777777777777-555555-555555-|
A|-555555555555-555555555555-333333-555555-555555555555-333333-555555-|
E|-333333333333---------------------333333---------------------333333-|

e|-----------------------------------------------------------------------|
B|-----------------------------------------------------------------------|
G|----------------------------------------------------------------777777-|
D|-222222-555555-777777-999999-222222-555555-777777-999999-222222-777777-|
A|-222222-555555-777777-999999-222222-555555-777777-999999-222222-555555-|
E|-000000-333333-555555-777777-000000-333333-555555-777777-000000--------|

e|--------------------------------------------------------------|
B|--------------------------------------------------------------|
G|----------------------777777---------------------55555-77777--|
D|-555555-999999-222222-777777-555555-999999999999-55555-77777--|
A|-555555-999999-222222-555555-555555-999999999999-33333-55555\-|
E|-333333-777777-000000--------333333-777777777777--------------|

verse
pre-chorus+chorus
solo rythm-same as verse
outro-same as intro
____________________________________________________________________________

X|punch drunk

intro A (x3)
e|-------------------|
B|-------------------|
G|-------------------|
D|-444-222-999-22-9--|
A|-444-222-999-22-9--|
E|-222-000-777-00-7--|

intro B 
e|--------------------|
B|--------------------|
G|--------------------|
D|-444-222-999-101010-|
A|-444-222-999-101010-|
E|-222-000-777--8-8-8-|

verse "punch drunk...intoxification" (x2)
e|------------------------------------------|
B|------------------------------------------|
G|------------------------------------------|
D|-44444444-22222222-99999999-5555-10101010-|
A|-44444444-22222222-99999999-5555-10101010-|
E|-22222222-00000000-77777777-3333--8-8-8-8-|
pm ........ ........ ........ .... ........

pre-chorus "collateral damage..." (x2)
e|------------------------------------|
B|------------------------------------|
G|------------------------------------|
D|-4-XXXXX-2-XXXXX-9-XXXXX-555-101010-|
A|-4-XXXXX-2-XXXXX-9-XXXXX-555-101010-|
E|-2-XXXXX-0-XXXXX-7-XXXXX-333--8-8-8-|

chorus "we all bleed..we all die..."                              
e|-------------------------------------------------------------------------|
B|-------------------------------------------------------------------------|
G|-------------------------------------------------------------------------|
D|-44444444-77777777-99999999-2-22-999-444444444-77777777-99999999-2-22-997|
A|-44444444-77777777-99999999-2-22-999-444444444-77777777-99999999-2-22-997|
E|-22222222-55555555-77777777-0-00-777-222222222-55555555-77777777-0-00-775|

post-chorus "...what a terrible sin..."                           
e|-----------------------------------|
B|-----------------------------------|
G|-----------------------------------|
D|-44-4444-7-777-77-99-9999-2-22-997-|
A|-44-4444-7-777-77-99-9999-2-22-997-|
E|-22-2222-5-555-55-77-7777-0-00-775-|

e|---------------------------------------------|
B|---------------------------------------------|
G|---------------------------------------------|
D|-44-4444-7-777-77-9-9999999-1010101010101010-|
A|-44-4444-7-777-77-9-9999999-1010101010101010-|
E|-22-2222-5-555-55-7-7777777--8-8-8-8-8-8-8-8-|

whloe verse (A-B) "function...diminishing value..."
pre-chorus "conspiracy theory..."
chorus
post-chorus

fill in
e|----------------|
B|----------------|
G|----------------|
D|-10101010101010-|
A|-10101010101010-|
E|--8-8-8-8-8-8-8-|

solo rythm-same as verse
fill in x3
quiet part

interlude "collateral damage..."
e|---------------------------------|
B|---------------------------------|
G|---------------------------------|
D|-4-XXXX(a lot--4444444-99-9/1010-|
A|-4-XXXX-of-----4444444-99-9/1010-|
E|-2-XXXX-times)-2222222-77-7/-8-8-|
pm               .......

chorus
post-chorus
chorus "it's the new genocide..."
fill in x3

end on
D|-4-
A|-4-
E|-2-
____________________________________________________________________________

XI|rise up

intro A                                   
e|-------------------------------------------|
B|-------------------------------------------|
G|-------------------------------------------|
D|-44-XXXXXX-77-XXXXXX-99-XX-77-XX-44-XXXXXX-|
A|-44-XXXXXX-77-XXXXXX-99-XX-77-XX-44-XXXXXX-|
E|-22-XXXXXX-55-XXXXXX-77-XX-55-XX-22-XXXXXX-|

e|---------------------------------------------|
B|---------------------------------------------|
G|---------------------------------11-11-11-11-|
D|-44-XXXXXX-77-XXXXXX-99-XX-77-XX-11-11-11-11-|
A|-44-XXXXXX-77-XXXXXX-99-XX-77-XX--9--9--9--9-|
E|-22-XXXXXX-55-XXXXXX-77-XX-55-XX-------------|

intro B                        
e|--------------------------------|
B|--------------------------------|
G|--------------------------------|
D|-4-4-444-7-7-777-99-77-4-4-44/7-|
A|-4-4-444-7-7-777-99-77-4-4-44/7-|
E|-2-2-222-5-5-555-77-55-2-2-22/5-|

e|-----------------------------------|
B|-----------------------------------|
G|-----------------------11\9-111111-|
D|-4-4-444-7-7-777-99-77-11\9-111111-|
A|-4-4-444-7-7-777-99-77--9\7--9-9-9-|
E|-2-2-222-5-5-555-77-55-------------|

intro C                                  
e|------------------------------------------|
B|------------------------------------------|
G|-------------------------------------9-99-|
D|-44--7-4-7--99--7-9-7--44--7-4-7--2~-9-99-|
A|-44--7-4-7--99--7-9-7--44--7-4-7--2~-7-77-|
E|-22--5-2-5--77--5-7-5--22--5-2-5--0~------|

e|----------------------------------------|
B|----------------------------------------|
G|-------------------------------------9~-|
D|-44--7-4-7--99--7-9-7--44--7-4-7--2~-9~-|
A|-44--7-4-7--99--7-9-7--44--7-4-7--2~-7~-|
E|-22--5-2-5--77--5-7-5--22--5-2-5--0~----|


verse A "well its up to you..."                         
e|----------------------------------|
B|----------------------------------|
G|--------------------------------9-|
D|-444-7-77-999-7-77-444-7-77-222-9-|
A|-444-7-77-999-7-77-444-7-77-222-7-|
E|-222-5-55-777-5-55-222-5-55-000---|
pm ...   .. ...   .. ...   .. ...     

e|----------------------------------------------|
B|----------------------------------------------|
G|----------------------------------------------|
D|-444-7-77-999-7-77-444-7-77-9-----------------|
A|-444-7-77-999-7-77-444-7-77-9-\\\pickslide\\\-|
E|-222-5-55-777-5-55-222-5-55-7-----------------|
pm ...   .. ...   .. ...   .. 

intro C "well its up to me..."

pre-chorus "we gotta rise up..."
e|--------------------------------------------|
B|--------------------------------------------|
G|--------------------------------------------|
D|-4-4444444444444-7-7777777777777-9-999999-9-|
A|-4-4444444444444-7-7777777777777-9-999999-9-|
E|-2-2222222222222-5-5555555555555-7-777777-7-|
pm   ...........     ...........     .....

chorus "...casualty...you want it all for free..."
e|--------------------------------------------------------------|
B|--------------------------------------------------------------|
G|------9--------------9-----------------9--------------------9-|
D|-44-7-9-9-9999--44-7-9-9-9999999--44-7-9-9-9999--44-7-77-2~-9-|
A|-44-7-7-9-9999--44-7-7-9-9999999--44-7-7-9-9999--44-7-77-2~-7-|
E|-22-5---7-7777--22-5---7-7777777--22-5---7-7777--22-5-55-0~---|
pm                         .......

fill
e|----------------------------------------------|
B|----------------------------------------------|
G|-----------------1111-111111------------------|
D|-44-4-44-44-4-44-1111-111111-\\\pickslide\\\--|
A|-44-4-44-44-4-44--9-9--9-9-9------------------|
E|-22-2-22-22-2-22------------------------------|

verse A "well your point of view..."
intro C "well its plain to see..."
pre-chorus
chorus
intro A "hey..hey..hey..."
intro A (palm mutes for muted strings) "well its up to you..."
intro B "lifes not free yeah..."
pre-chorus (without pm)
chorus

outro "..thats the way its gotta be..."
e|---------------------------------------------------------|
B|---------------------------------------------------------|
G|------9--------------9--------------9--------------99----|
D|-44-7-9-9-9999--44-7-9-9-9999--44-7-9-9-9999--44-7-99-9--|
A|-44-7-7-9-9999--44-7-7-9-9999--44-7-7-9-9999--44-7-77-9--|
E|-22-5---7-7777--22-5---7-7777--22-5---7-7777--22-5----7--|
____________________________________________________________________________

XII|yesterdays

intro guitar one (x4)
e|------------------------------------|
B|------------------------------------| 
G|---------5-555-5--------------------| 
D|-2-222-2-5-555-5-5-55555------------|
A|-2-222-2-3-333-3-5-55555-5-5-55-5---|
E|-0-000-0---------3-33333-2-2/33-2---|

intro guitar two (x4)
e|---------------------------------------|
B|-------------------13~-13h14-----------|
G|-13-12-13-15-13-15-----------15-13-15--|
D|---------------------------------------|
A|---------------------------------------|
E|---------------------------------------|

verse A "up from the ashes..." 
e|---------------------------------------|
B|---------------------------------------|
G|----------55555555---------------------|
D|-22222222-55555555-55555555------------|
A|-22222222-33333333-55555555-555-55-5---|
E|-00000000----------33333333-222-33-2---|
pm ........ ........ ........ ... .. .   

e|---------------------------------------|
B|---------------------------------------|
G|----------55555555---------------------|
D|-22222222-55555555-55555555------------|
A|-22222222-33333333-55555555-555-55-5---|
E|-00000000----------33333333-222-33-2---|
pm ........ ........ ........ 
  
verse B "that sense that tomorrow..."(x2)
e|---------------------------------------|
B|---------------------------------------|
G|----------5-555555---------------------|
D|-2-222222-5-555555-5-555555------------|
A|-2-222222-3-333333-5-555555-5-555-55-5-|
E|-0-000000----------3-333333-2-222-33-2-|

chorus "can we go back to those days..." (x2)
e|----------------------------------------------------------|
B|----------------------------------------------------------|
G|-9-99999999999-5-55555555555---------------7-7777777777-8-|
D|-9-99999999999-5-55555555555-5-55555555555-7-7777777777-8-|
A|-7-77777777777-3-33333333333-5-55555555555-5-5555555555-6-|
E|-----------------------------3-33333333333----------------|

intro
whole verse (A-B) "up from the shadows..."
chorus
intro

solo rythm
e|---------------------|
B|---------------------|
G|---------------------|
D|-2~---55555555444555-|
A|-2~---55555555444555-|
E|-0~---33333333222333-|
pm      ........

chorus
intro "..back in yesterdays..."

end on
D|-2-
A|-2-
E|-0-
____________________________________________________________________________

XIII|change my mind

intro guitar one
e|--------------------------------------|
B|--------------------------------------|
G|-999---------------5~--------7~---4-7-|
D|-999-5-55-777-2-22-5~--------7~---4-5-|
A|-777-5-55-777-2-22-3~--------5~---2---|
E|-----3-33-555-0-00--------------------|

intro guitar two 
e|--------------------------------------|
B|--------------------------------------|
G|--------------------------------------|
D|--------------------------------------|
A|-------------------3-5-7-10--5-7-9-10-|
E|--------------------------------------|

e|--------------------------------------|
B|--------------------------------------|
G|-999---------------5555555--7777-44-7-|
D|-999-5-55-777-2-22-5555555--7777-44-5-|
A|-777-5-55-777-2-22-3333333--5555-22---|
E|-----3-33-555-0-00--------------------|

verse A "every time i talk..."
e|-----------------------------------------|
B|-----------------------------------------|
G|-999-----------------5555555-7777-44-7---|
D|-999-5-555-777-2-222-5555555-7777-44-5---|
A|-777-5-555-777-2-222-3333333-5555-22-----|
E|-----3-333-555-0-000---------------------|

verse B
e|--------------------------------------------------|
B|--------------------------------------------------|
G|-999-----------------5555555-7777-----------------|
D|-999-5-555-777-2-222-5555555-7777-\\\pickslide\\\-|
A|-777-5-555-777-2-222-3333333-5555-----------------|
E|-----3-333-555-0-000------------------------------|

chorus "noooo...ain't gonna change my mind..."
e|--------------------------------------------------------------------|
B|--------------------------------------------------------------------|
G|-9999999---------5555555-7777777--9999999---------5555555-7777-4-7--|
D|-9999999-5555555-5555555-7777777--9999999-5555555-5555555-7777-4-5--|
A|-7777777-5555555-3333333-5555555--7777777-5555555-3333333-5555-2----|
E|---------3333333--------------------------3333333-------------------|

verse "i want you to stop..."
chorus

solo rythm (x2)
e|------------------------------------------|
B|------------------------------------------|
G|-9~--9-999-997---------------------55-7-7-|
D|-9~--9-999-997-5-555-555-7-777-777-55-7-5-|
E|-7~--7-777-775-5-555-555-7-777-777-33-5---|
A|---------------3-333-333-5-555-555--------|
pm       ...       ...       ...

interlude A "you try...to deny" (x2)
e|------------------------------|
B|------------------------------|
G|-9--999---------------55-7-7--|
D|-9--999-5--555-7--777-55-7-5--|
A|-7--777-5--555-7--777-33-5----|
E|--------3--333-5--555---------|

interlude B "you try...'you try'..." (x2)
e|---------------------------------|add--|
B|---------------------------------|2nd--|
G|-9999999-----------------55-7-7--|-9~--|
D|-9999999-5555555-7777777-55-7-5--|-9~~-|
A|-7777777-5555555-7777777-33-5----|-7~~-|
E|---------3333333-5555555---------|-----|

verse

outro A "...mind...aint gonna change my mind..."
e|---------------------------------|
B|---------------------------------|
G|-9999999---------5555555-7777777-|
D|-9999999-7777777-5555555-7777777-|
A|-7777777-7777777-3333333-5555555-|
E|---------5555555-----------------|

outro B "...change my mind..."
e|-------------------------|
B|-------------------------|
G|---------5555555-7777777-|
D|-7777777-5555555-7777777-|
A|-7777777-3333333-5555555-|
E|-5555555-----------------|
 
outro C "..gonna change my mind..."
e|-------------------------|
B|-------------------------|
G|---------5555555-777-4-7-|
D|-7777777-5555555-777-4-7-|
A|-7777777-3333333-555-2-5-|
E|-5555555-----------------|

____________________________________________________________________________

IX|judgement day

intro guitar two (x4) (there is another guitar plays this intro on another fret...)
e|-------------------------------------------------------------|
B|-12121212121212121313131312121212-15151515151515151818181815-|
G|-------------------------------------------------------------|
D|-------------------------------------------------------------|
A|-------------------------------------------------------------|
E|-------------------------------------------------------------|

intro guitar one (comes in 2nd time intro guitar two) (x2)
e|------------------------------------|
B|------------------------------------|
G|------------------------------------|
D|-2222222222222222-55555555-77777777-|
A|-2222222222222222-55555555-77777777-|
E|-0000000000000000-33333333-55555555-|

verse A "who ever know..."       
e|------------------------------|
B|------------------------------|
G|------------------------------|
D|-2~-5~-7~---2~-5~-7~----------|
A|-2~-5~-7~---2~-5~-7~----------|
E|-0~-3~-5~---0~-3~-5~----------|

verse B "the world's gone mad its so hard..." (x2)
e|----------------------------|
B|----------------------------|
G|----------------------------|
D|-222222222222-555555-777777-|
A|-222222222222-555555-777777-|
E|-000000000000-333333-555555-|

pre-chorus "i never knew..."
e|---------------------------|
B|---------------------------|
G|-555555555555-777777777777-|
D|-555555555555-777777777777-|
A|-333333333333-555555555555-|
E|---------------------------|

chorus "hooray...its judgement day" (x4)
e|-----------------------------|
B|-----------------------------|
G|---------------77-777--------|
D|-22-222-55-555-77-777-77-777-|
A|-22-222-55-555-55-555-77-777-|
E|-00-000-33-333--------55-555-|

intro (both guitars 2 times)
whole verse (A-B) "whoever thought there would come..."
pre-chorus
chorus
intro (both guitars 2 times)
solo rythm-intro palm muted
pre-chorus
chorus

end on
D|-2~
A|-2~
E|-0~
____________________________________________________________________________

so friendz, thats it!
it was really hard work so.... please rate!

e-mail me mistakes(if you found some),suggestions,comments el_diablo7th@freenet.de
Добавлено: 30.07.2013
Другие материалы по этой песне:
  • Аккорды и текст

Страница создана 30.07.2013
http://primanota.ru/pennywise/from-the-ashes-chords.htm
Привет, Гость.
Предлагаем пройти революционный курс по гитаре.
Подарок от PrimaNota.Ru, забирай!