PrimaNota.ru - самый крупный в мире бесплатный архив песенных текстов, аккордов, табулатур и нот


Pennywise - Fight It - аккорды и текст, таба, бас-таба, видео

Регистрация Запомнить меня
Войти через:  Facebook Google Twitter Vk Yandex Mail.ru

Pennywise - Fight It - аккорды и текст, таба, бас-таба, видео

Печатать
Просмотров: 164
Fight It
Pennywise
Artist: Pennywise
Title: Fight It
Album: Punk'o'rama 4 (compilation)
Tabbed By: Dan Dan the American

Intro/Pre-Verse:

e------------------------|-------------------
B------------------------|-------------------
G-7-7-7-7-7-7-7-7-10-9-7-|-5-5-10-9-7-10-14--
D-7-7-7-7-7-7-7-7-10-9-7-|-5-5-10-9-7-10-14--
A-5-5-5-5-5-5-5-5--8-7-5-|-3-3--8-7-5--8-12--
E------------------------|-------------------

Verse:

  PM.............          PM.............
e------------------------|-------------------------------
B------------------------|-------------------------------
G-7-7-7-7-7-7-7-7-10-9-7-|-5-5-5-5-5-5-5-5-10-9-7--------
D-7-7-7-7-7-7-7-7-10-9-7-|-5-5-5-5-5-5-5-5-10-9-7--------
A-5-5-5-5-5-5-5-5--8-7-5-|-3-3-3-3-3-3-3-3--8-7-5--------
E------------------------|-------

  PM.............
e------------------------|---------------------------
B------------------------|---------------------------
G-7-7-7-7-7-7-7-7-10-9-7-|-5-5-5-10-10-10-9-9-7-7-7--
D-7-7-7-7-7-7-7-7-10-9-7-|-5-5-5-10-10-10-9-9-7-7-7--
A-5-5-5-5-5-5-5-5--8-7-5-|-3-3-3--8--8--8-7-7-5-5-5--
E------------------------|---------------------------

Chorus:

e--------------------------|-----------------------------
B--------------------------|-----------------------------
G-3-3-3-10-10-10-7-7-7-7-7-|-3-3-3-10-10-10-7-7-7-10-10--
D-3-3-3-10-10-10-7-7-7-7-7-|-3-3-3-10-10-10-7-7-7-10-10--
A-1-1-1--8--8--8-5-5-5-5-5-|-1-1-1--8--8--8-5-5-5--8--8-
E--------------------------|-----------------------------
     
Добавлено: 08.06.2013
Другие материалы по этой песне:
  • Аккорды и текст

Страница создана 27.02.2012
http://primanota.ru/pennywise/fight-it-chords.htm
Привет, Гость.
Предлагаем пройти революционный курс по гитаре.
Подарок от PrimaNota.Ru, забирай!