PrimaNota.ru - самый крупный в мире бесплатный архив песенных текстов, аккордов, табулатур и нот


Pennywise - F - текст песни, видео

Регистрация Запомнить меня
Войти через:  Facebook Google Twitter Vk Yandex Mail.ru

Pennywise - F - текст песни, видео

Печатать
Просмотров: 59
F**K Authority - Pennywise
-------------------------------------------------------------------------------

By: PoknAtcha182@aol.com

 This is a cool song to play. I tried to make it as accurate as possible.listen to the song for timing. If you use this tab please rate it. thanx.

 palm mute = ..
 Intro: Play 2x
e|----------------------------------------------------------------------|
B|----------------------------------------------------------------------|
G|----------------------------------------------------------------------|
D|----------------66-44-444-444-444-------------------44----------6-8---|
A|-66-666-666-666-44-22-222-222-222-22-44-444-444-444-22-66-666-6-4-6---|
E|-44-444-444-444-------------------00-22-222-222-222----44-444-4-------|

 Verse: 
e|------------------------------------------------------------------------|
B|------------------------------------------------------------------------|
G|------------------------------------------------------------------------|
D|-----------------6-4-4444444444444-------------------4----------6-8-----|
A|-6-6666666666666-4-2-2222222222222-2-4-4444444444444-2-6-666666-4-6-----|
E|-4-4444444444444-------------------0-2-2222222222222---4-444444---------|
 ............. ............ ............. ...... 

e|------------------------------------------------------------------------------|
B|-------------------------------------------------------------------------------
G|------------------------------------------------------------------------------|
D|-----------------6-4-44-4-44-4-44-4--------------------4----------------------|
A|6-66-6-66-6-66-6-4-2-22-2-22-2-22-2-2-4-44-4-44-4-44-4-2-6-66-6-66-6-66-6666--|
E|4-44-4-44-4-44-4--------------------0-2-22-2-22-2-22-2---4-44-4-44-4-44-4444--|
 .. .. .. .. .. .. .. .. .. .. ..
 
 Chorus: Play 2x
e|----------------------------------------------------------------------------|
B|----------------------------------------------------------------------------|
G|----------------------------------------------------------------------------|
D|------------------4-44444444444444------------------------------------------|
A|-6-66666666666666-2-22222222222222--4-44444444444444-6-66666666666666-------
E|-4-44444444444444-------------------2-22222222222222-4-44444444444444-------|
 .............. .............. ............... ..............
 
 Bridge 1:
e|-----------------------------------------------------------------------|
B|-----------------------------------------------------------------------|
G|-----------------------------------------------------------------------|
D|----------4-4-4-4--6-6-6-6--------------------4-4-4-4--66666666--------|
A|-6-6-6-6--2-2-2-2--4-4-4-4--6-6-6-6--6-6-6-6--2-2-2-2--44444444--6-----|
E|-4-4-4-4--------------------4-4-4-4--4-4-4-4---------------------4-----|

 Bridge 2:
e|------------------------------------------------------------------------------|
B|------------------------------------------------------------------------------|
G|------------------------------------------------------------------------------|
D|---4---------9-9-9-9----------11-11-11-11-----------9-9-9----4----------------|
A|-6-2-6-6-666-7-7-7-7--6-6-666-9--9--9---9---6-6-666-7-7-7--6-2-66666666-6-----|
E|-4---4-4-444----------4-4-444---------------4-4-444--------4---44444444-4-----|

 
 Outro: 
e|-----------------------------------------------------------------------|
B|-----------------------------------------------------------------------|
G|-----------------------------------------------------------------------|
D|---4----------------------13-13-13-13-13-13----------------------------|
A|-6-2--6-6-6-666-6-6-6-666-11-11-11-11-11-11--pick-scrape---------------|
E|-4----4-4-4-444-4-4-4-444----------------------------------------------|

e|----------------------------------/-----------------------------------------|
B|----------------------------------/-----------------------------------------|
G|--------------play-this-twice-----/-----------------------------------------|
D-9-9-999-4-4-4-66------------------/--9-9-99911-11-11-11-11-4-4-666----------|
A-7-7-777-2-2-2-44-6-6-xxx-6-6-6-xxx/--7-7-777-9--9--9--9--9-2-2-444-6-6-6-6--
E------------------4-4-xxx-4-4-4-xxx/--------------------------------4-4-4-4--|

 the end may be a little off but it shouldn't be hard to learn.
If you need the lyrics(or want to comment), you can email me.

Oder:
Intro x2
Verse x1
Chorus x2
Bridge1 x1
Bridge2 x1
Verse x1 
Chorus x2
Bridge1 x1
Outro x1
Chorus x1
Bridge1 x1
Bridge 2 x1
==============================================================================
Добавлено: 17.10.2013
Другие материалы по этой песне:
  • Текст (слова)

Страница создана 17.10.2013
http://primanota.ru/pennywise/f-lyrics.htm
Привет, Гость.
Предлагаем пройти революционный курс по гитаре.
Подарок от PrimaNota.Ru, забирай!