PrimaNota.ru - самый крупный в мире бесплатный архив песенных текстов, аккордов, табулатур и нот


Pennywise - Disconnect - текст песни, таба, видео

Регистрация Запомнить меня
Войти через:  Facebook Google Twitter Vk Yandex Mail.ru

Pennywise - Disconnect - текст песни, таба, видео

Печатать
Просмотров: 127
Artist: Pennywise
Song: Disconnect
Tabber: Paul Irving


Intro:
e|------------------------------------------|
B|------------------------------------------|
G|----------------------4444---4------44----|
D|----------------------4444---4------44----|
A|--6666-4-6--444-66-4--2222-4-2--444-22-4--|
D|--6666-4-6--444-66-4-------4----444----4--|

e|----------------------------------------|
B|----------------------------------------|
G|---------------------8888-6-8--666-8-6--|
D|---------------------8888-6-8--666-8-6--|
A|--4444-1-4--111-444--6666-4-6--444-6-4--|
D|--4444-1-4--111-444---------------------|


Pre-Verse:
e|---------------------------------------------------|
B|---------------------------------------------------|
G|--------------------------------------666-XX-8888--|
D|--------------------------------------666-XX-8888--|
A|------------2-----------2----------2--444-XX-6666--|
D|--666-66-4----666-66-4----666-66-4-----------------|


Verse:
e|---------------------------------------------|
B|---------------------------------------------|
G|---------4---------4---------4--666-XX-8888--|
D|---------4---------4---------4--666-XX-8888--|
A|--66-6-4-2--66-6-4-2--66-6-4-2--444-XX-6666--|
D|--66-6-4----66-6-4----66-6-4-----------------|


Chorus:
e|------------------------------------------|
B|------------------------------------------|
G|----------------------4444---4------44----|
D|----------------------4444---4------44----|
A|--6666-4-6--444-66-4--2222-4-2--444-22-4--|
D|--6666-4-6--444-66-4-------4----444----4--|

e|----------------------------------------|
B|----------------------------------------|
G|---------------------8888-6-8--666-8-6--|
D|---------------------8888-6-8--666-8-6--|
A|--4444-1-4--111-444--6666-4-6--444-6-4--|
D|--4444-1-4--111-444---------------------|


Solo:
Guitar 1.
e|-----------------------------------------------|
B|-----------------------------------------------|
G|-11/--4-3--11/--4-3--11/--4-3/--66\--4-3--(8)--|         
D|-----------------------------------------------|
A|-----------------------------------------------|
D|-----------------------------------------------|

Guitar 2.
e|-------------------------------------------|
B|-------------------------------------------|          
G|------------44-4-444--66-6-666--44-4-33-3--|         
D|------------44-4-444--66-6-666--22-2-11-1--|       
A|--44-4-444--22-2-222--44-4-444-------------|   
D|--44-4-444---------------------------------|

Guitar 1.
e|------------------|           
B|------------------|          
G|--1~--4~--6~--8~--|        
D|------------------|         
A|------------------|              
D|------------------|


There might some parts missing or incorrect but this is how i play it and
it sounds perfect! Its just so fast its hard to listen for the guitar(s).

Tabbed by: p_irving

Добавлено: 18.11.2013
Другие материалы по этой песне:
  • Аккорды и текст

Страница создана 22.05.2012
http://primanota.ru/pennywise/disconnect-chords.htm
Привет, Гость.
Предлагаем пройти революционный курс по гитаре.
Подарок от PrimaNota.Ru, забирай!