PrimaNota.ru - самый крупный в мире бесплатный архив песенных текстов, аккордов, табулатур и нот


Pennywise - Confusion - текст песни, таба, видео

Регистрация Запомнить меня
Войти через:  Facebook Google Twitter Vk Yandex Mail.ru

Pennywise - Confusion - текст песни, таба, видео

Печатать
Просмотров: 88
----------------------------------------------------------------------------
			  CONFUSION-Pennywise
----------------------------------------------------------------------------
Tabbed by: Ryan
Email: saintjimmy924@yahoo.com

Tuning: Standard
Intro
Gtr. 1
e|----------------------------------------------------------------------------|    x3
B|----------------------------------------------------------------------------|
G|-11-11-11-11-11-13-13-14-14-14-13-13-14-14---7-7-7-7-14-13-11-11-11---------|
D|-x--x--x--x--x--x--x--x--x--x--x--x--x--x----x-x-x-x-x--x--x--x--x----------|
A|-9--9--9--9--9--11-11-12-12-12-11-11-12-12---5-5-5-5-12-11-9--9--9----------|
E|----------------------------------------------------------------------------|

Gtr. 2
e|------------------------------------------------------------------------|
B|------------------------------------------------------------------------|
G|-------------------------------------------777777777777777777777777777--|
D|--4444444444444444444444444444444444444444-777777777777777777777777777--|
A|--4444444444444444444444444444444444444444-555555555555555555555555555--|
E|--2222222222222222222222222222222222222222------------------------------|

e|------------------------------------------------------------------------|
B|------------------------------------------------------------------------|
G|-------------------------------------------777777777777777999999999999--|
D|--4444444444444444444444444444444444444444-777777777777777999999999999--|
A|--4444444444444444444444444444444444444444-555555555555555777777777777--|
E|--2222222222222222222222222222222222222222------------------------------|

Verse x2
e|------------------------------------------------------------------------|
B|------------------------------------------------------------------------|
G|--777777----------------------------------------------------------------|
D|--777777---------77777-------44444--------44444-------------------------|
A|--555555---------77777-------44444--------44444-------------------------|
E|-----------------55555-------22222--------22222-------------------------|

e|------------------------------------------------------------------------|
B|------------------------------------------------------------------------|
G|--777777----------------------------------------------------------------|
D|--777777---------77777-------44444--------44444----2--------------------|
A|--555555---------77777-------44444--------44444----2--------------------|
E|-----------------55555-------22222--------22222----0--------------------|

Chorus x4
e|--------------------------------------------------------------------------|
B|--------------------------------------------------------------------------|
G|--------------------222-666666-7777-9999----------------------------------|
D|-444444444444-22222-222-666666-xxxx-xxxx----------------------------------|
A|-444444444444-22222-000-444444-5555-7777----------------------------------|
E|-222222222222-00000-------------------------------------------------------|

Interlude  (Gtr. 2 plays intro again)
e|--------------------------------------------------------------------------|
B|--------------------------------------------------------------------------|
G|-11-11-13-14-13--11-11--11-11-11-11-11-9-9-9-9----------------------------|
D|-x--x--x--x--x---x--x---x--x--x--x--x--x-x-x-x----------------------------|
A|-9--9--11-12-11--9--9---9--9--9--9--9--7-7-7-7----------------------------|
E|--------------------------------------------------------------------------|

Do Verse, Chorus, Interlude again

Bridge
Gtr. 1
e|----------------------------------------------------------------------------|
B|----------------------------------------------------------------------------|
G|-----------7/9\7/9---------9/11\9/11-------------7/9\7/9--------------------|
D|-----------x-x-x-x---------x-x-x-x--------------x-x-x-x---------------------|
A|-----------5/7\5/7---------7/-9\7/-9-------------5/7\5/7--------------------|
E|----------------------------------------------------------------------------|

Gtr. 2 (palm muted)
e|--------------------------------------------------------------------------|
B|--------------------------------------------------------------------------|
G|------7777-----------7777-------------------7777--------11-11-11-11-11----|
D|-4444-7777------4444-7777--------------4444-7777---------x--x--x--x--x----|
A|-4444-5555------4444-5555--------------4444-5555---------9--9--9--9--9----|
E|-2222-----------2222-------------------2222-------------------------------|
(repeat without palm muting)

Repeat chorus

Outro
e|---------------------------------------------------------------------------|
B|---------------------------------------------------------------------------|
G|---------------------------------7777777777777777777777777777777777--------|
D|--444444444444444444444444444444-7777777777777777777777777777777777--------|
A|--444444444444444444444444444444-5555555555555555555555555555555555--------|
E|--222222222222222222222222222222-------------------------------------------|

end on
(palm muted)
e|--------------------------------------------------------------------------|
B|--------------------------------------------------------------------------|
G|--------------------------------------------------------------------------|
D|-44444444444444-----------------------------------------------------------|
A|-44444444444444-----------------------------------------------------------|
E|-22222222222222-----------------------------------------------------------|
Добавлено: 12.10.2013
Другие материалы по этой песне:
  • Аккорды и текст

Страница создана 12.10.2013
http://primanota.ru/pennywise/confusion-chords.htm
Привет, Гость.
Предлагаем пройти революционный курс по гитаре.
Подарок от PrimaNota.Ru, забирай!