PrimaNota.ru - самый крупный в мире бесплатный архив песенных текстов, аккордов, табулатур и нот


Pennywise - California Dreaming - таба, видео

Регистрация Запомнить меня
Войти через:  Facebook Google Twitter Vk Yandex Mail.ru

Pennywise - California Dreaming - таба, видео

Печатать
Просмотров: 108
Pennywise: California Dreamin
tabbed by:Colin Jackman
Standard Tuning, 2 guitars

Intro:

E------1----------------------------|
B--------3-----1-------3-------1----|
G----2-----------0-------3-------0--| ��3x
D--0---------2-------3-------2------|
A----------3-------1-------3--------|
E-----------------------------------|

E-------------------------------------------------------1------------|
B----------2-------3---3---3---3--------1-------1---------3-----3----|
G------2-----2------------------------2---2---2---2---2-----------3--|
D----2---2-----2------------------------------------0---------3------|
A--0-------------0---0---0---0---0�X-3-------3---------------1--------|
E--------------------------------------------------------------------|

E-----------------------------------|
B----------2-------3---3---3---3----|
G------2-----2----------------------|
D----2---2-----2--------------------|
A--0-------------0---0---0---0---0--|
E-----------------------------------|

E------1----------------------------|
B--------3-----1-------3-------1----|
G----2-----------0-------3-------0--| 
D--0---------2-------3-------2------|
A----------3-------1-------3--------|
E-----------------------------------|
                                                  ��2x
E-----------------------------------|
B----------2-------3---3---3---3----|
G------2-----2----------------------|
D----2---2-----2--------------------|
A--0-------------0---0---0---0---0--|
E-----------------------------------|

Verse: (damn fast)

E--------------------------------------------------------|
B--------------------------------------------------------|
G--------------------------------------------------------|
D--77777777-55555555-33333333-55555555-2222222222222222--|
A--55555555-33333333-11111111-33333333-0000000000000000--|
E--------------------------------------------------------|

E--------------------------------------------------------|
B--------------------------------------------------------|
G--------------------------------------------------------|
D--------------------77777777-33333333-2222222222222222--|
A--33333333-22222222-55555555-11111111-0000000000000000--|
E--11111111-00000000-------------------------------------|





Pre-Chorus

E-----------------------------------------|
B-----------------------------------------|
G-----------------------------------------|
D-----7----5----3----5--2222222222222222--|
A--55-5-33-3-11-1-33-3--0000000000000000--|
E-----------------------------------------|
   PM   PM   PM   PM

Chorus:

E---------------------------------------------------------|
B---------------------------------------------------------|
G---------------------------------------------------------|
D--77777777-55555555-33333333-55555555-2222222222222222---|
A--55555555-33333333-11111111-33333333-0000000000000000---|
E---------------------------------------------------------|

Repeat Verse, Pre-Chorus and Chorus.

Bridge:

E-----------------------------------------------------|
B--8-8-7-8-8-7-8-7-8-10-8-7-8-8-7-8-8-7-8-7-8-10-8-7--|
G--7-7-7-7-7-7--------------7-7-7-7-7-7---------------|
D--7-7-7-7-7-7--------------7-7-7-7-7-7---------------|
A--5-5-5-5-5-5--------------5-5-5-5-5-5---------------|
E-----------------------------------------------------|

E----------------------------------------|
B----------------------------------------|
G--5-5----6-6----7-7---------------------|
D--5-5--5-6-6--6-7-7------------------7--|
A--3-3--3-4-4--4-5-5--888888888888888-7--|
E---------------------6-6-6-6-6-6-6-6-5--|

Guitar Solo: (without second guitar)

E---------------------------10-12-13p12p10h12-----10-----10-12-13--|
B-----13----15p13-(13)^--10-------------------13^----13^-----------|
G--14----14--------------------------------------------------------|
D------------------------------------------------------------------|
A------------------------------------------------------------------|
E------------------------------------------------------------------|

E--15-13-12-12h13p12--------------------------------------------|
B--------------------15-13----13-15~~---------------------------|
G--------------------------14--------------7--9-10-12-10----10--|
D--------------------------------------------------------12-----|
A---------------------------------------------------------------|
E-------------------------------------/5-8----------------------|

E-------------------------------------------|
B-------------------------------------------|
G�X12^-10-12^~--7/14-14-15-14-/18~-15-14~~~--|
D-------------------------------------------|
A-------------------------------------------|
E-------------------------------------------|




Middle Part (all palm muted and ONLY downstrokes)

E------------------------------------------|
B------------------------------------------|
G------------------------------------------|
D--222222222222222222222222-------3-2-0----|
A--000000000000000000000000-0-1-4-------4--|
E------------------------------------------|

Last Verse (slower)

E---------------------------------------------------|
B---------------------------------------------------|
G--7-7-7-7-5-5-5-5-3-3-3-3-5-5-5-5-2-2-2-2-2-2-2-2--|
D--7-7-7-7-5-5-5-5-3-3-3-3-5-5-5-5-2-2-2-2-2-2-2-2--|
A--5-5-5-5-3-3-3-3-1-1-1-1-3-3-3-3-0-0-0-0-0-0-0-0--|
E---------------------------------------------------|

E---------------------------------------------------|
B---------------------------------------------------|
G---------------------------------------------------|
D------------------7-7-7-7-3-3-3-3-2-2-2-2-2-2-2-2--|
A--3-3-3-3-2-2-2-2-5-5-5-5-1-1-1-1-0-0-0-0-0-0-0-0--|
E--1-1-1-1-0-0-0-0----------------------------------|

Last Chorus:

E---------------------------------------|
B---------------------------------------|
G---------------------------------------| repeat
D--77777777-55555555-33333333-55555555--|
A--55555555-33333333-11111111-33333333--|
E---------------------------------------|

Outro:

E----------------------------------------------------|
B----------------------------------------------------|
G----------------------------------------------------|
D------7-----5-----3-----5------7-----5-----3-----5--|
A--555-5-333-3-111-1-333-3--555-5-333-3-111-1-333-3--|
E----------------------------------------------------|

Second guitar comes in with this:

E-----------------------------------------------------------|
B-----------------------------------------------------------|
G--7-----9-----10----12-----14-----12------10-----9------7--|
D--------------------------------------------------------7--|
A--5-----7-----8-----10-----12-----10------8------7------5--|
E-----------------------------------------------------------|

E--------|
B--------|
G--------|
D--------|
A�X12~~~--|
E--------|
Добавлено: 12.09.2013
Другие материалы по этой песне:
  • Аккорды и текст

Страница создана 12.09.2013
http://primanota.ru/pennywise/california-dreaming-chords.htm
Привет, Гость.
Предлагаем пройти революционный курс по гитаре.
Подарок от PrimaNota.Ru, забирай!