PrimaNota.ru - самый крупный в мире бесплатный архив песенных текстов, аккордов, табулатур и нот


Pennywise - American Dream - текст песни, таба, видео

Регистрация Запомнить меня
Войти через:  Facebook Google Twitter Vk Yandex Mail.ru

Pennywise - American Dream - текст песни, таба, видео

Печатать
Просмотров: 84
pennywise
american dream
straight ahead
---------------------------------------
very fun song,but not to easy!!!
legend:~ let ringgg|/,\ slide|h hammer on|p pull of|x mute
intro guitar one
e|------------------------------------------------------------------------|
B|------------------------------------------------------------------------|
G|----------77777777-----------------------------77777777-----------------|
D|-22222222-77777777-77777777-5555-7777-22222222-77777777-77777777--55-77-|
A|-22222222-55555555-77777777-5555-7777-22222222-55555555-77777777--55-77-|
E|-00000000----------55555555-3333-5555-00000000----------55555555--33-55-|
pm ........ ........ ........ .... .... ........ ........ ........
intro guitar two (comes in at ca 0:05)
e|---------------------------------------------|
B|---------------------------------------------|
G|-99999999-1111111111111111-1212121212121212--|
D|---------------------------------------------|
A|-77777777--9-9-9-9-9-9-9-9-1010101010101010--|
E|---------------------------------------------|

verse \"things you can deny"\
e|---------------------------------------------|
B|---------------------------------------------|
G|------77--------------------77---------------|
D|-2-22-77-7-777-5/7\5\4-2-22-77-7-777-5/7\5\4-|
A|-2-22-55-7-777-5/7\5\4-2-22-55-7-777-5/7\5\4-|
E|-0-00----5-555-3/5\3\2-0-00----5-555-3/5\3\2-|
pm                                     .......

e|---------------------------------------------|
B|---------------------------------------------|
G|------77--------------------77---------------|
D|-2-22-77-7-777-5/7\5\4-2-22-77-7-777-5/7\5\4-| x3
A|-2-22-55-7-777-5/7\5\4-2-22-55-7-777-5/7\5\4-|
E|-0-00----5-555-3/5\3\2-0-00----5-555-3/5\3\2-|

chorus \"the political scene..."\
e|------------------------------------------------------------------|
B|------------------------------------------------------------------|
G|---9-99-7-77-77--------------------9-99-7-77-77-7//99999-7//99999-|
D|---9-99-7-77-77-7-7-77-55-5-77-7---9-99-7-77-77-x//xxxxx-x//xxxxx-|
A|---7-77-5-55-55-7-7-77-55-5-77-7---7-77-5-55-55-5//77777-5//77777-|
E|-0-0-00---------5-5-55-33-3-55-5-0-0-00---------------------------|

e|-----------------------------------------------------------|
B|-----------------------------------------------------------|
G|---9-99-7-77-77--------------------9-99-7-77-77------------|
D|---9-99-7-77-77-7-7-77-55-5-77-7---9-99-7-77-77-7-777777-5-|
A|---7-77-5-55-55-7-7-77-55-5-77-7---7-77-5-55-55-7-777777-5-|
E|-0-0-00---------5-5-55-33-3-55-5-0-0-00---------5-555555-3-|

after chorus
e|---------------------------------------------|
B|---------------------------------------------|
G|------77--------------------77---------------|
D|-2-22-77-7-777-5/7\5\4-2-22-77-7-777-5/7\5\4-|
A|-2-22-55-7-777-5/7\5\4-2-22-55-7-777-5/7\5\4-|
E|-0-00----5-555-3/5\3\2-0-00----5-555-3/5\3\2-|
pm                                     .......

e|---------------------------------------------|
B|---------------------------------------------|
G|------77--------------------77---------------|
D|-2-22-77-7-777-5/7\5\4-2-22-77-7-777-5/7\5\4-|
A|-2-22-55-7-777-5/7\5\4-2-22-55-7-777-5/7\5\4-|
E|-0-00----5-555-3/5\3\2-0-00----5-555-3/5\3\2-|

verse \"time has come you know..."\
chorus

bridge guitar one
e|--------------------------------------------------------|
B|--------------------------------------------------------|
G|----------77777777-----------------------------77777777-|
D|-22222222-77777777-77777777-55-5-77-7-22222222-77777777-|
A|-22222222-55555555-77777777-55-5-77-7-22222222-55555555-|
E|-00000000----------55555555-33-3-55-5-00000000----------|
pm ........ ........ ........ ..   ..   ........ ........

bridge guitar two (comes in at ca 1:39)
e|------------------------------------------------------|
B|------------------------------------------------------|
G|-99999999-1111111111111111-1212121212121212-141414-12-|
D|------------------------------------------------------|
A|-77777777--9-9-9-9-9-9-9-9-1010101010101010-121212-10-|
E|------------------------------------------------------|

solo (very hard one i can't tab)

solo rythm
e|---------------------------------------------|
B|---------------------------------------------|
G|------77--------------------77---------------|
D|-2-22-77-7-777-5/7\5\4-2-22-77-7-777-5/7\5\4-| x2
A|-2-22-55-7-777-5/7\5\4-2-22-55-7-777-5/7\5\4-|
E|-0-00----5-555-3/5\3\2-0-00----5-555-3/5\3\2-|

interlude
e|-------------------------|
B|-------------------------|
G|----7~-----------7~------|
D|-2~-7~-7~-5/7-2~-7~-7~-5-|
A|-2~-5~-7~-5/7-2~-5~-7~-5-|
E|-0~----5~-3/5-0~----5~-3-|

verse - this one same as after chorus \"things you can't deny"\
chorus

chorus ending
e|-------|
B|-------|
G|-------|
D|-55-77-|
A|-55-77-|
E|-33-55-|

outro guitar one
e|-----------------------------------|
B|-----------------------------------|
G|--9-99-99-7-77-77------------------|
D|--9-99-99-7-77-77-7-7-77-55-5-77-7-| x3
A|--7-77-77-5-55-55-7-7-77-55-5-77-7-|
E|--0-00-00---------5-5-55-33-3-55-5-|

e|-------------------------------|
B|-------------------------------|
G|--9-99-99-7-77-77--------------|
D|--9-99-99-7-77-77-7-7-77-55-77-|
A|--7-77-77-5-55-55-7-7-77-55-77-|
E|--0-00-00---------5-5-55-33-55-|

outro guitar two (i'm not sure about this because its very hard to hear...its something 
that...)
e|--------------------------|
B|--------------------------|
G|-9-9-7-7-6--9-9-7-7p6h7-6-|
D|--------------------------| x4
A|--------------------------|
E|--------------------------|

thats it...hf!
e-mail at el_diablo7th@freenet.de
Добавлено: 20.11.2013
Другие материалы по этой песне:

Страница создана 07.05.2012
http://primanota.ru/pennywise/american-dream-chords.htm
Привет, Гость.
Предлагаем пройти революционный курс по гитаре.
Подарок от PrimaNota.Ru, забирай!