PrimaNota.ru - самый крупный в мире бесплатный архив песенных текстов, аккордов, табулатур и нот


Penny And Sparrow - Bread And Bleeding - таба, видео

Регистрация Запомнить меня
Войти через:  Facebook Google Twitter Vk Yandex Mail.ru

Penny And Sparrow - Bread And Bleeding - таба, видео

Печатать
Просмотров: 151
Уроки эстрадного вокала в Санкт-Петербурге
Bread and Bleeding by Penny and Sparrow
Celtic Tuning(DADGAD)
No Capo

You can pick up the strumming pattern from the youtubevideos. It's the same throughout, 
just different technique

Main Riff:
(D):-0---0-0--0---0-0--0-0-0-0--0---0--0------|
(A):-0---0-0--0---0-0--0-0-0-0--0---0--0------|
(G):-0---2p0--0---2p0--0-0-0-0--0---0--0------|
(D):-0---0-0--2p0-0-0--2s4-2p0--0---0--0------|
(A):-0---0-0--0---0-0--0-0-0-0--2---4--0------|
(D):-0---0-0--0---0-0--0-0-0-0--0---0--0------|     x2


Verse 1(half-muted strum):

Gettin' over "most of me"/that's all I give/almost always "most of me"/and i'm getting tired

D :-0---------------------------------------0----------------------------------------------0--|
A :-0---------------------------------------0----------------------------------------------0--|
G :-0---------------------------------------0----------------------------------------------0--|
D :-0---------------------------------------4----------------------------------------------2--|
A :-0---------------------------------------0----------------------------------------------0--|
D :-0---------------------------------------0----------------------------------------------0--|

But I say "we're doing fine"/ Well, that's what i say/You and i are doing fine/This is 
exhausting/This love and
D :-0------------------0--0--------------------------------------------------------------------0--------0-----|
A :-0------------------0--0--------------------------------------------------------------------0--------0-----|
G :-0------------------0--0--------------------------------------------------------------------0--------0-----|
D :-0------------------2--4--------------------------------------------------------------------2--------4-----|
A :-0------------------0--0--------------------------------------------------------------------0--------0-----|
D :-0------------------0--0--------------------------------------------------------------------0--------0-----|

it's working....

D :-0--------|
A :-0--------|
G :-0--------|
D :-2--------|
A :-0--------|
D :-0--------|

Bridge:

Oh yeah...........oh yeah...............

(D):-0---0-0--0---0-0--0-0-0-0--0---0--0-|
(A):-0---0-0--0---0-0--0-0-0-0--0---0--0-|
(G):-0---2p0--0---2p0--0-0-0-0--0---0--0-|
(D):-0---0-0--2p0-0-0--2s4-2p0--0---0--0-|
(A):-0---0-0--0---0-0--0-0-0-0--2---4--0-|
(D):-0---0-0--0---0-0--0-0-0-0--0---0--0-|


Verse 2(muffled strum to open):


Honestly I know you know/ And it hurts to say/But we've been here a year or so/And it 
feels like blue collar


All those loving things you said/They're hard to hear/I'm confused and scared to 
death/It's all bread and
D :-0----------------------------------0--0--------------------------------------------------------0-----|
A :-0----------------------------------0--0--------------------------------------------------------0-----|
G :-0----------------------------------0--0--------------------------------------------------------0-----|
D :-0----------------------------------2--4--------------------------------------------------------2-----|
A :-0----------------------------------0--0--------------------------------------------------------0-----|
D :-0----------------------------------0--0--------------------------------------------------------0-----|


bleeding/And inside I'm screaming
D :-0----------0--------------0--|
A :-0----------0--------------0--|
G :-0----------0--------------0--|
D :-2----------4--------------2--|
A :-0----------0--------------0--|
D :-0----------0--------------0--|

Chorus(muted strum):


This is how it is/ all along/ its  half empty bed and you're still waiting up
D :-0-----------------------------------------0------------------------0-----|
A :-0-----------------------------------------0------------------------0-----|
G :-0-----------------------------------------0------------------------0-----|
D :-0-----------------------------------------2------------------------4-----|
A :-0-----------------------------------------0------------------------0-----|
D :-0-----------------------------------------0------------------------0-----|

Coming home again/all alone/just tell me you want me to/ and I'll lay back down
D :-0-----------------------------------------0------------------------0-----|
A :-0-----------------------------------------0------------------------0-----|
G :-0-----------------------------------------0------------------------0-----|
D :-0-----------------------------------------2------------------------4-----|
A :-0-----------------------------------------0------------------------0-----|
D :-0-----------------------------------------0------------------------0-----|

--------------------------------------------------------------

And I'm sorry for all my pretending, but you know me,
D :------0----------------0-------------------0-----|
A :------0----------------0-------------------0-----|
G :------0----------------0-------------------0-----|
D :------0----------------0-------------------0-----|
A :------5----------------7-------------------9-----|
D :------5----------------7-------------------9-----|

Where else would I go?

(D):-0---0-0--0---0-0--0-0-0-0--|
(A):-0---0-0--0---0-0--0-0-0-0--|
(G):-0---2p0--0---2p0--0-0-0-0--|
(D):-0---0-0--2p0-0-0--2s4-2p0--|
(A):-0---0-0--0---0-0--0-0-0-0--|
(D):-0---0-0--0---0-0--0-0-0-0--|   Play part twice

----------------------------------------------------------------
Play loudly:

And I'm sorry for all my pretending, but you know me, where else would i go?

D :------0-----------------0-------------------0--------------0-------------|
A :------0-----------------0-------------------0--------------0-------------|
G :------0-----------------0-------------------0--------------0-------------|
D :------0-----------------0-------------------0--------------0-------------|
A :------5-----------------7-------------------9--------------12------------|
D :------5-----------------7-------------------9--------------12------------|


Chorus(strum muted):


This is how it is/ all along/ its  half empty bed and you're still waiting up
D :-0-----------------------------------------0------------------------0-----|
A :-0-----------------------------------------0------------------------0-----|
G :-0-----------------------------------------0------------------------0-----|
D :-0-----------------------------------------2------------------------4-----|
A :-0-----------------------------------------0------------------------0-----|
D :-0-----------------------------------------0------------------------0-----|

Coming home again/all alone/just tell me you want me to/
D :-0----------------0------------------------0----------|
A :-0----------------0------------------------0----------|
G :-0----------------0------------------------0----------|
D :-0----------------2------------------------4----------|
A :-0----------------0------------------------0----------|
D :-0----------------0------------------------0----------|

And I'll lay back down
(D):------0---0-0--0---0-0--0-0-0-0--|
(A):------0---0-0--0---0-0--0-0-0-0--|
(G):------0---2p0--0---2p0--0-0-0-0--|
(D):------0---0-0--2p0-0-0--2s4-2p0--|
(A):------0---0-0--0---0-0--0-0-0-0--|
(D):------0---0-0--0---0-0--0-0-0-0--|

Tell me you want me to and I'll lay back down

D :-0----------------0----------0----------|
A :-0----------------0----------0----------|
G :-0----------------0----------0----------|
D :-0----------------2----------4----------|
A :-0----------------0----------0----------|
D :-0----------------0----------0----------|


(D):------0---0-0--0---0-0--0-0-0-0--|
(A):------0---0-0--0---0-0--0-0-0-0--|
(G):------0---2p0--0---2p0--0-0-0-0--|
(D):------0---0-0--2p0-0-0--2s4-2p0--|
(A):------0---0-0--0---0-0--0-0-0-0--|
(D):------0---0-0--0---0-0--0-0-0-0--|

And I'll lay back down, oh, and i'll lay back down

(D):------0---0-0--0---0-0--0-0-0-0-----------0-|
(A):------0---0-0--0---0-0--0-0-0-0-----------0-|
(G):------0---2p0--0---2p0--0-0-0-0-----------0-|
(D):------0---0-0--2p0-0-0--2s4-2p0-----------2-|
(A):------0---0-0--0---0-0--0-0-0-0-----------0-|
(D):------0---0-0--0---0-0--0-0-0-0-- --------0-|
Добавлено: 03.08.2015
Другие материалы по этой песне:
  • Аккорды и текст

Страница создана 03.08.2015
http://primanota.ru/penny-and-sparrow/bread-and-bleeding-chords.htm
Привет, Гость.
Предлагаем пройти революционный курс по гитаре.
Подарок от PrimaNota.Ru, забирай!