PrimaNota.ru - самый крупный в мире бесплатный архив песенных текстов, аккордов, табулатур и нот


Penguin Cafe Orchestra - The sound of someone you love - таба, видео

Регистрация Запомнить меня
Войти через:  Facebook Google Twitter Vk Yandex Mail.ru

Penguin Cafe Orchestra - The sound of someone you love - таба, видео

Печатать
Просмотров: 101



Date: Sun, 02 Oct 2005 20:28:04 +0400
From: Sarra Facey 
Subject: p/penguin_cafe_orchestra/the_sound_of_someone_you_love.tab

The Sound of Someone you Love who's Going Away and it Doesn't Matter
Penguin Cafe Orchestra
from their 1975 album Music from the Penguin Cafe

The combined sections of tab below make up the first minute or so
of music, which is repeated through a good deal of the rest of the
11'46.  Repeat till bored 


  1 amp; 2 amp; 3 amp; 4 amp; 5 amp; 6 amp; 7 amp; 8 amp;   1 amp; 2 amp; 3 amp; 4 amp; 5 amp; 6 amp; 7 amp; 8 amp; 
e-7---------7-----8p7-------7-----|-5---------7-----5----------5----|
B-------0---------------0---------|-------3---------------3---------|
G-----0-------0-------0-------0---|-----0-------0-------0-------0---|
D-5-------5-------5-------5-------|-4-------4-------4-------4-------|
A---------------------------------|---------------------------------|
E---------------------------------|---------------------------------|


e-3---------2-----3---------3-----|-3-------------------------------|
B-------1---------1-----1---------|-0---------1-----3---------3-----|
G-----0-------0-------------------|-------0---------------0---------|
D-2-------2-----------2-------2---|-----0-------0-------0-------0---|
A-----------------0-------0-------|---------------------------------|
E---------------------------------|-3-------3-------3-------3-------|

   repeat the above four bars
               with this line
            in bar 4 2nd time     E-3-------3-------3-------3---2---|


                                  +


e-----------------0---------0-----|-
B-3---------3-----------2---------|-
G-------0-------------0-------0---|-
D-----2-------2-----------2-------|-
A---------2-------0---------------|-
E-0-------------------------------|-

                    1 amp; 2 amp; 3 amp; 4 amp; 1 amp; 2 amp; 3 amp; 4 amp; 1 amp; 2 amp; 3 amp; 4 amp;
                   -2---------2-------2-------2-------2-------2-----|
  (this bar's in   -------3-----0---------0-------0-------0-------0-|
  3/2 time; count  -----2---------------0-------0-------0-------0---|
  as indicated)    -0-------0-----------------------0---------------|
                   -------------------------2---------------2-------|
                   -----------------3-------------------------------|


                                  +


e---------------------------------|---------------------------------|
B-0h3-------3-----0h3-------3-----|-----3-----2-----0---------0-----|
G-------0-----------------------0-|-----------------------0-------0-|
D-----2-------2-------2-------2---|-----2-------2-------2-------2---|
A---------2---------------2-------|-0-------0-------0-------0-------| x2
E-0---------------0---------------|---------------------------------|

                                  |-----------------0---------------|
                                  |-2---------3-----2---------2-----|
                               |-------0---------------0---------|
                                  |-----2-------2-------2-------2---|
                                  |-0-------0-------0-------0-------|
                                  |---------------------------------|

                                  |---------------------------------|
                                  |-2---------2h3-2h3---------------|
                               |-------0-------------------------|
                                  |-----2---------------------------|
                                  |-0-------0-----------------------|
                                  |---------------------------------|


                                          -- transcribed September 2005


Добавлено: 23.11.2013
Вам также может быть интересно:
Другие материалы по этой песне:
  • Аккорды и текст

Страница создана 23.11.2013
http://primanota.ru/penguin-cafe-orchestra/the-sound-of-someone-you-love-chords.htm
Привет, Гость.
Предлагаем пройти революционный курс по гитаре.
Подарок от PrimaNota.Ru, забирай!