PrimaNota.ru - самый крупный в мире бесплатный архив песенных текстов, аккордов, табулатур и нот


Penguin Cafe Orchestra - Telephone And Rubber Band - таба, видео

Регистрация Запомнить меня
Войти через:  Facebook Google Twitter Vk Yandex Mail.ru

Penguin Cafe Orchestra - Telephone And Rubber Band - таба, видео

Печатать
Просмотров: 92
Уроки эстрадного вокала в Санкт-Петербурге
Авторы музыки: Simon Jeffes

-------------------------------------------------------------------------------
                             Telephone and Rubber Band (Intro)- Penguin Cafe Orchestra
-------------------------------------------------------------------------------
Tabbed by:hsn
E-mail:



Tuning: Standard 

telephone loop continues through song
e|---------------------------------|
B|---------------------------------|
G|---------------------------------|
D|---------------------------------|
A|----9---9------------------------|
E|-12--12-------12--12-------------|


Little string bit you can play along with another guitar
e|---0----------------|
B|-----10-------------|
G|--------11----------|
D|--------------------|
A|--------------------|
E|--------------------|

| \   slide down
| h   hammer-on
| p   pull-off
| ~   vibrato
| +   harmonic
| x   Mute note
| b   Bend
| pb  Pre-bend
| br  Bend release
| pbr Pre-bend release
| brb Bend release bend

***********************************
Добавлено: 12.08.2015
Другие материалы по этой песне:
  • Аккорды и текст

Страница создана 12.08.2015
http://primanota.ru/penguin-cafe-orchestra/telephone-and-rubber-band-chords.htm
Привет, Гость.
Предлагаем пройти революционный курс по гитаре.
Подарок от PrimaNota.Ru, забирай!