PrimaNota.ru - самый крупный в мире бесплатный архив песенных текстов, аккордов, табулатур и нот


Pendragon - Oh Divineo - таба, видео

Регистрация Запомнить меня
Войти через:  Facebook Google Twitter Vk Yandex Mail.ru

Pendragon - Oh Divineo - таба, видео

Печатать
Просмотров: 84
Уроки эстрадного вокала в Санкт-Петербурге
                                          Artist - Pendragon
                                         ********************
                                          Song - Oh Divineo
                                         *******************
                                          Album - The Jewel
                                         *******************
                                        Tabbed By - Ayreon77
                                       **********************



 * = Volume pedal/Guitar knob
PH = Pinch Harmonics



 Keyboard Chords    
 Em           F                Eb               Dm
[--*----p----|---h------p-----|----------------|----------------]
[-13--12-8---|-12-13--12-8----|-b--rb-s-h-p-h--|--s-----s----s--]
[----------9-|-------------10-|-8--8--\7-8-7-8-|-7\9--7-\5-7-\9-]
[------------|----------------|----------------|----------------]
[------------|----------------|----------------|----------------]
[------------|----------------|----------------|----------------]
 
 C                 G
[-------------]
[-b--rb----s--]
[-7--7--5-5\7-]
[-------------]
[-------------]
[-------------]

00:28                                                            FEEDBACK 
 Em           F                Eb               Dm                G
[--*----p----|---h------p-----|----------------|---------------------]
[-13--12-8---|-12-13--12-8----|-b--rb-s-h-p-h--|--s----s-----h---s---]
[----------9-|-------------10-|-8--8--\7-8-7-8-|-7\9--7\5-7-5-7--\12-]
[------------|----------------|----------------|---------------------]
[------------|----------------|----------------|---------------------]
[------------|----------------|----------------|---------------------]



00:50 
 Em          rake                   C
[--h--------|----h------|---------------|-----------]--------\
[-7-8-7-----|---7-8-7---|------------h--|-b----s----]---------\
[-------7---|--7------7-|---7---7---7-9-|-7-7-5\4-5-]----------\
[---------9-|-7---------|-9---9---9-----|-----------]-----------\
[-----------|-----------|---------------|-----------]------------\
[-----------|-----------|---------------|-----------]-------------\
                                                                   \
             Am                                                     \X2
[----------------------------------------------|-------------]------/
[--h---p-p---h-s----p-s---p------p------p------|--h--8-------]-----/
[-4-5-7-5-4-5-7\9--7-5\4-5-4-5--7-5-7--9-7-9-9-|-7-9---9-7-9-]----/
[----------------------------------------------|-------------]---/
[----------------------------------------------|-------------]--/
[----------------------------------------------|-------------]-/



01:29 
 Em                                                Am
[----------------|-------------|-------------p----|-------------]
[ PH----PH-PH-PH-|--h--8-------|-PH-PH--h---8-5-5-|--h--8-------]
[-9--9--9--9--9--|-7-9---9-7-9-|-9--9--7-9--------|-7-9---9-7-9-]
[----------------|-------------|------------------|-------------]
[----------------|-------------|------------------|-------------]
[----------------|-------------|------------------|-------------]


[---------------|-------------|---------------------]
[----h-----h----|--h--8-------|----PH--h-----h----s-]
[-9-7-9-9-7-9-9-|-7-9---9-7-9-|-9--9--7-9-9-7-9-9-\-]
[---------------|-------------|---------------------]
[---------------|-------------|---------------------]
[---------------|-------------|---------------------]


01:48
 Dm              C        G           Dm              C        G 
[----17-------17----|----------------|----17-------17----|----------------]
[-17----17-20----20-|-17-15----13----|-17----17-20----20-|-17-15----13----]
[-------------------|-------14----15-|-------------------|-------14----15-]
[-------------------|----------------|-------------------|----------------]
[-------------------|----------------|-------------------|----------------]
[-------------------|----------------|-------------------|----------------]


01:58 
          slow                                           b rp            b r
[-----------b-rp------|----------------------------|-17-17---15-17-|-17-17-]
[17--15-17-17---15-17-|-15-17-14-17-12-17-14-17-15-|---------------|-------]
[---------------------|----------------------------|---------------|-------]
[---------------------|----------------------------|---------------|-------]
[---------------------|----------------------------|---------------|-------]
[---------------------|----------------------------|---------------|-------]

02:08
           slow           h  p                      s    b rp            b r
[-----------b-rp------|-12-17-12----------------|-12\17-17---15-17-|-17-17-]
[17--15-17-17---15-17-|----------15-14----------|------------------|-------]
[---------------------|----------------14-------|------------------|-------]
[---------------------|-------------------14-12-|------------------|-------]
[---------------------|-------------------------|------------------|-------]
[---------------------|-------------------------|------------------|-------]

                                                             with slide
02:19      slow                                      slow    slow slide
[-----------b-rp------|----------------------------|--b-r---|-------]
[17--15-17-17---15-17-|-15-17-14-17-12-17-14-17-15-|-17--17-|--s----]
[---------------------|----------------------------|--------|-5\12--]
[---------------------|----------------------------|--------|-5\12--]
[---------------------|----------------------------|--------|-------]
[---------------------|----------------------------|--------|-------]


02:37
[-8----|-15--------15------------------]
[----8-|----15--------15-----------b-r-]
[--8---|-------17--------17-14-15-15---]
[------|-------------------------------]
[------|-------------------------------]
[------|-------------------------------]


----------------------------------------------
Verse 1
********
Eb       Bb
Lead me, lead me
Em                    Bb
Take me down, take me down
Eb         G
Cry, don't cry
Eb                           Am                 G
Long standing hypocrites you burn the candle at both ends
Bb
Reality, reflection in my eye
C              Eb
Tranquillity a virtue in itself
               Dm
Please give it to me
Eb      Bb
We need compassion
   C             Bb
Of long standing nation
C       Eb                  Dm
 A book overdue, of lasting relation

----------------------------------------------
03:32
CLEAR SOLO
***********
                         
     hold bend
 Eb   |  |                F                   G
[--b-----r-----brb-------|---h--------s---s--|-----b----]
[-13-13-13-11--13--13-11-|-10-11-10-10\8-8\6-|-12-12-10-]
[------------------------|-------------------|----------]
[------------------------|-------------------|----------]
[------------------------|-------------------|----------]
[------------------------|-------------------|----------]

----------------------------------------------
VERSE 2  
********
Am            F   G
Lead me, lead me
Am         Dm   F  G
Cry, don't cry
Am         Dm        F              G
Trace your deism and take it to the roots
Am            Dm
Humpty Dumpty just fell down
     F                    G
He's crashing through the roof

Oh Divineo

----------------------------------------------
04:08
Barred Chords
Bb F Eb 

Where does the fire burn now

Bb F Eb

Where does the fire burn now

Bb F Eb

Where does the fire burn?

----------------------------------------------
04:27
SOLO
***** 
Am                         F            G             Am
[---s---17----17------------s-------------|-----------b---s---17---17-]
[-10\17----17----15-15-15-15\13--12-13----|-12-13-15-15-15\17---17----]
[--------------------------------------14-|---------------------------]
[-----------------------------------------|---------------------------]
[-----------------------------------------|---------------------------]
[-----------------------------------------|---------------------------]

            F            G             Am                  F     G
[------------s-------------|-----------b---b---b-------------------------]
[-15-15-15-15\13--12-13----|-12-13-15-15--15--15-15-13-12------------h---]
[-----------------------14-|------------------------------14-12----12-14-]
[--------------------------|------------------------------------14-------]
[--------------------------|---------------------------------------------]
[--------------------------|---------------------------------------------]

                     Am                 F     G
[---h--p--------h-----b--b--b----------------------------h--p--------h------]
[-12-13-12----12-13-15--15-15-15-13-12------------h----12-13-12----12-13-11-]
[----------14--------------------------14-12----12-14-----------14----------]
[--------------------------------------------14-----------------------------]
[---------------------------------------------------------------------------]
[---------------------------------------------------------------------------]

  PH
[--br---]
[-11-10-]
[-------]
[-------]
[-------]
[-------]

B Eb

Where does the fire burn now

B Eb

Where does the fire burn now

B Eb

Where does the fire burn now

B Eb

Where does the fire burn.

----------------------------------------------
05:09 - B Eb
        F Dm
        B Eb
[-------------|-------------]
[-11----------|-10----------]
[----12-------|----10-------]
[-------13-12-|-------12-10-]X8
[-------------|-------------]
[-------------|-------------]

----------------------------------------------

05:47
[--------------------------|--------PH---------trill--------------]
[-----8------PH-PH---------|-PH--PH-8-PH-PH-----h---------------s-]
[-7-9---9-7--9--9--9-9-9-9-|-7---9----9--7--9--7-9-********9-9-9\-]
[--------------------------|--------------------------------------]
[--------------------------|--------------------------------------]
[--------------------------|--------------------------------------]


[----------------------------|-------15---------s---17-|-------17----]
[-----8-----------h-----h----|-15-17----17-15-15\17----|-17-20----20-]
[-7-9---9-7--9-9-7-9-9-7-9-9-|-------------------------|-------------]
[----------------------------|-------------------------|-------------]
[----------------------------|-------------------------|-------------]
[----------------------------|-------------------------|-------------]

                  06:08
[----------------|-------------------------------------------------------]
[-17-15----------|-------------------------------------------------------]
[-------14-17-15-|-17-17-17-17-17-17-17-17-17-17-17-17-16-16-16-16-16-16-]
[----------------|-------------------------------------------------------]
[----------------|-------------------------------------------------------]
[----------------|-------------------------------------------------------]


[-------------------|----------------------------------------]
[-------------------|----------------------------------------]
[-------------------|----------------------------------------]
[-17-17-17-17-17-17-|-14-14-14-14-14-14-14-14-14-14-14-14-17-]
[-------------------|----------------------------------------]
[-------------------|----------------------------------------]


[--------------------------------------------------------------------------]
[--------------------------------------------------------------------------]
[-17-17-17-17-17-17-17-17-17-17-17-17-16-16-16-16-16-16--------------------]
[--------------------------------------------------------17-17-17-17-17-17-]
[--------------------------------------------------------------------------]
[--------------------------------------------------------------------------]


[----------------------------------------------------------------------]
[----------------------------------------------------------------------]
[----------------------------------16-16-16-16-16-16-------------------]
[-14-14-14-14-14-17-17-17-17-17-17-------------------17-17-17-17-17-17-]
[----------------------------------------------------------------------]
[----------------------------------------------------------------------]

06:19
[-----------------------------------]
[-------------------------------h---]
[-14--14--14--14--14--14--14--16-17-]
[-----------------------------------]X4
[-----------------------------------]
[-----------------------------------]

06:29                                              start slowing down notes
[--------------------------------------------------------------------------]
[--------------------------------------------------------------------------]
[-17-17-17-17-17-17-17-17-17-17-17-17-16-16-16-16-16-16--------------------]
[--------------------------------------------------------17-17-17-17-17-17-]
[--------------------------------------------------------------------------]
[--------------------------------------------------------------------------]


[--------------------------------------------------------------------------]
[--------------------------------------------------------------------------]
[--------------------------------------------16-17-16--------------b-----b-]
[-14-14--14--14--14--14--14--14--14--14--14------------17--14--17-17-17-17-]
[--------------------------------------------------------------------------]
[--------------------------------------------------------------------------]



A nice Track. Enjoy.......
Добавлено: 04.08.2013
Другие материалы по этой песне:
  • Аккорды и текст

Страница создана 04.08.2013
http://primanota.ru/pendragon/oh-divineo-chords.htm
Привет, Гость.
Предлагаем пройти революционный курс по гитаре.
Подарок от PrimaNota.Ru, забирай!