PrimaNota.ru - самый крупный в мире бесплатный архив песенных текстов, аккордов, табулатур и нот


Peña Baiona - Vino Griego - таба, видео

Регистрация Запомнить меня
Войти через:  Facebook Google Twitter Vk Yandex Mail.ru

Peña Baiona - Vino Griego - таба, видео

Печатать
Просмотров: 118
Уроки эстрадного вокала в Санкт-Петербурге
2/4
Standard tuning

                 E E E E     E E S           H     E S S         
|-----|-------|-----------|---------------|-----|---------------|
|-----|-------|-----------|---------------|-----|---------------|
|-----|-------|--0-0-0-0--|--1-0-0--------|--0--|-(0)1-0--------|
|-----|----1--|-----------|--------3-1-3--|-----|--------3-1-0--|
|-----|--3----|-----------|---------------|-----|---------------|
|--3--|-------|-----------|---------------|-----|---------------|
   Q     Q Q                       S S S                 E S S   
 
                                 E E E E     E E E           Q   
|-----|-----|-----||----------|-----------|-----------|---------|
|-----|-----|-----|*----------|-----------|-----------|---------|
|-----|-----|-----||----------|--0-0-0-0--|--1-0-0----|------0--|
|-----|-----|-----||-------1--|-----------|--------3--|--1-3----|
|--3--|-(3)-|-(3)-|*(3)--3----|-----------|-----------|---------|
|-----|-----|-----||---3------|-----------|-----------|---------|
   H     H     H     E E E E                       E     E E     
 
   H     Q.        E E E     E E E E     E E E E             E E     
|-----|-------|-----------|-----------|-----------|-----|-----------|
|-----|-------|-----------|------1----|-----------|-----|-----------|
|-(0)-|-(0)---|----0-3-3--|--3-3---3--|--3-1-0-1--|-----|----1-0----|
|-----|-------|--1--------|-----------|-----------|--3--|-(3)----3--|
|-----|----1--|-----------|-----------|-----------|-----|-----------|
|-----|-------|-----------|-----------|-----------|-----|-----------|
           E     E                                   H     E     E   
 
     E                                 Q E E     H     E E E E   
|-----------|-----------|-----|----|||--------|-----|-----------|
|-----------|-----------|-----|----*|*-1-1-3--|--4--|-(4)4-4-3--|
|----0------|-----------|-----|----|||--------|-----|-----------|
|--1---3-1--|--0-3-1-0--|-----|----|||--------|-----|-----------|
|-----------|-----------|--3--|-(3)*|*--------|-----|-----------|
|-----------|-----------|-----|----|||--------|-----|-----------|
   E   E E     E E E E     H     H                               
 
   E E E E     Q E E     H     E E E E     E E E E         E     H   
|--1--------|---------|-----|-----------|-----------|---------|-----|
|----4-3-1--|---------|-----|-----------|--1--------|---------|-----|
|-----------|--0-0-1--|--3--|-(3)3-3-2--|----3-1-0--|------0--|--1--|
|-----------|---------|-----|-----------|-----------|--3-3----|-----|
|-----------|---------|-----|-----------|-----------|---------|-----|
|-----------|---------|-----|-----------|-----------|---------|-----|
                                                       Q E           
 
   E E E E     E E E    >1 H     E   E E     H     H  >2               
|-----------|----------||-----|-----------|-----|----||-----|---------|
|-----------|----------||-----|-----------|-----|----*|-----|---------|
|-(1)1-1-0--|--3-1-0---||--0--|-(0)--0-1--|--3--|-(3)||-----|---------|
|-----------|--------3-||-----|----3------|-----|----||--1--|-(1)3-1--|
|-----------|----------||-----|-----------|-----|----*|-----|---------|
|-----------|----------||-----|-----------|-----|----||-----|---------|
                     E             E                     H     Q E E   
 
                   
|-----|-----|-----|
|-----|-----|-----|
|-----|-----|-----|
|-----|-----|-----|
|--3--|-(3)-|-(3)-|
|-----|-----|-----|
   H     H     H   
 


Duration Legend
---------------
W - whole
H - half
Q - quarter
E - 8th
S - 16th
T - 32nd
X - 64th
(#) note tied to previous
. - note dotted

Created with TablEdit http://www.tabledit.com/
Добавлено: 03.01.2016
Другие материалы по этой песне:
  • Аккорды и текст

Страница создана 03.01.2016
http://primanota.ru/pena-baiona/vino-griego-chords.htm
Привет, Гость.
Предлагаем пройти революционный курс по гитаре.
Подарок от PrimaNota.Ru, забирай!