PrimaNota.ru - самый крупный в мире бесплатный архив песенных текстов, аккордов, табулатур и нот


Pelu Piero - Trib - таба, видео

Регистрация Запомнить меня
Войти через:  Facebook Google Twitter Vk Yandex Mail.ru

Pelu Piero - Trib - таба, видео

Печатать
Просмотров: 74
Уроки эстрадного вокала в Санкт-Петербурге
Tribù - P.Pelù


1° assolo


e|---------------------------------4---4/6--6----4---------------------------|
B|--4-4--4-6-7-----------4--4-7--------------------7-4-----------------------|
G|--------------6--6-3-6-----------------------------------------------------|
D|---------------------------------------------------------------------------|
A|---------------------------------------------------------------------------|
E|---------------------------------------------------------------------------|

2° assolo


e|-----------------------------------2/11--11-11-11-13-10--6-13-13-13-14-13----|
B|--4--44-6-3-----6--6-6-7-6-4-------------------------------------------------|
G|--------------3--------------------------------------------------------------|
D|-----------------------------------------------------------------------------|
A|-----------------------------------------------------------------------------|
E|-----------------------------------------------------------------------------|

e|-11-11-18-11-11-18-11-11-18-11-11-18--10-10-18-10\6/13--13-13-14-13--11-11-18-11--18-11--|
B|-----------------------------------------------------------------------------------------|
G|-----------------------------------------------------------------------------------------|
D|-----------------------------------------------------------------------------------------|
A|-----------------------------------------------------------------------------------------|
E|-----------------------------------------------------------------------------------------|


3° assolo

e|---------------------------------------------------------------------|
B|--4-4--4-6-7-----------4--4-7-9-10b-10b-10-9-7-4---------------------|
G|--------------6--6-3-6-----------------------------------------------|
D|---------------------------------------------------------------------|
A|---------------------------------------------------------------------|
E|---------------------------------------------------------------------|

e|--11-11--11--13-14---------------------10/11--11-14-16-16b-16b-16-14-------|
B|----------------------14--14-14-11-14----------------------------------16--|
G|---------------------------------------------------------------------------|
D|---------------------------------------------------------------------------|
A|---------------------------------------------------------------------------|
E|---------------------------------------------------------------------------|
Добавлено: 14.06.2016
Другие материалы по этой песне:
  • Аккорды и текст

Страница создана 14.06.2016
http://primanota.ru/pelu-piero/trib-chords.htm
Привет, Гость.
Предлагаем пройти революционный курс по гитаре.
Подарок от PrimaNota.Ru, забирай!