PrimaNota.ru - самый крупный в мире бесплатный архив песенных текстов, аккордов, табулатур и нот


Pelu Piero - Bene Bene Male Male - текст песни, таба, видео

Регистрация Запомнить меня
Войти через:  Facebook Google Twitter Vk Yandex Mail.ru

Pelu Piero - Bene Bene Male Male - текст песни, таба, видео

Печатать
Просмотров: 114
O bene bene o male male... sei sei sei..
vale la pena di provare

C5 Bb5 x4

|----------------------------------------------------------------|
|-11-11-11---10---8------11-11-11--10b(1tono)----11-11-11--10--8-|
|-12-12-12---10---8------12-12-12--10b(1tono)----12-12-12--10--8-|
|----------------------------------------------------------------|
|----------------------------------------------------------------|
|----------------------------------------------------------------|

|-------------------|
|---6b8--8b6--6-4---|
|-----------------5-|
|-------------------|
|-------------------|
|-------------------|
C5 Bb5
Sei sapresti dire chi sei
C5 Bb5
sapresti dire perchè tra noi c'è una gran voglia di farsi male
G5 F5
ahi che calamita di guai
da grande cosa penso di fare
                                  Bb5
non voglio smettere mai di sognare
C5 Bb5
vuoi che non ti basta mai
me lo ripeti come un ossessione
   Bb5 A5
con il sorriso da televisione

C5 F5
avremo speso tutto il tempo a farci male..
|---------------------------------------------------------------|
|----------------5------------5--8-----6-6----------------------|
|------------------5--------------------------------------------|
|---------------------5---3-------------------------------------|
|---------------------------------------------------------------|
|---------------------------------------------------------------|

ah!

ma aspetteremo anche un momento per capire!

|---------------------------------------------------------------|
|----------------5------------5--8-----6-6----------------------|
|------------------5--------------------------------------------|
|---------------------5---3-------------------------------------|
|---------------------------------------------------------------|
|---------------------------------------------------------------|

Bb5 F5
se guardi in giro tutto intorno
e scopri che non sei più solo...
|-------------------------------------------------|
|--11-11-11---10---8------11-11-11--10b(1tono)----|
|--12-12-12---10---8------12-12-12--10b(1tono)----|
|-------------------------------------------------|
|-------------------------------------------------|
|-------------------------------------------------|
oh no!

intanto giro giro tondo e scopro che non sono pi? solo...
|--------------------------------------------------|
|--11-11-11---10---8-------------------------------|
-11-11-11--10b(1tono)------------------------------|
|--12-12-12---10---8------12-12-12--10b(1tono)-----|
|--------------------------------------------------|
|--------------------------------------------------|
|--------------------------------------------------|
 oh no!

C5 F5
o bene bene bene bene o male male male male
tu non lasciare al caso
quello che vuoi diventare
e allora bene bene bene
e allora male male male
la storia Ë sempre quella
la puoi prendere o lasciare

C5 Bb5
|------------------------------------|
|------------------------------------|
|------------------------------------|
|------------------------------------|
|-------------------1-0-1-0-1-0-1-0--|
|-1-0-1-0-1-0-1-0--------------------|

..oh no! hei!..

|-----------------------------------------------------------------|
|-11-11-11---10---8------11-11-11--10b(1tono)----11-11-11--10--8--|
|-12-12-12---10---8------12-12-12--10b(1tono)----12-12-12--10-----|
--8-
|----------------------------------------------------------------|
|----------------------------------------------------------------|
|----------------------------------------------------------------|

|-------------------|
|---6b8--8b6--6-4---|
|-----------------5-|
|-------------------|
|-------------------|
|-------------------|

C5 Bb5
o bene bene o male male
|--------|
|-11b13--|
|--------|
|--------|
|--------|
|--------|

sei
C5 Bb5
sapresti dire chi sei
sapresti dire noi siamo
come si vuole che si sia
G5 F5
sei le scelte che non fai
è gia difficle confessare
    Bb5 A5
ma è più difficile lasciarsi andare
C5 F5
avremo speso tutto il tempo a recitare oh!
|----------------------------------------------------------------|
|---slide-da-x-a-5------------5--8-----6-6-----------------------|
|------------------5---------------------------------------------|
-----------------------------------------------------------------|
|---------------------5---3--------------------------------------|
|----------------------------------------------------------------|
|----------------------------------------------------------------|
aspetteremo sempre il momento per godere... ah!

repeat the riff!

Bb5 F5
se guardi gira tutto intorno e scopri che non sei pi? solo...

|-------------------------------------------------|
|--11-11-11---10---8------11-11-11--10b(1tono)----|
|--12-12-12---10---8------12-12-12--10b(1tono)----|
|-------------------------------------------------|
|-------------------------------------------------|
|-------------------------------------------------|

oh no!

intanto giro giro in tondo e scopro che non sono pi? solo...
|--------------------------------------------------|
|--11-11-11---10---8------11-11-11--10b(1tono)-----|
|--12-12-12---10---8------12-12-12--10b(1tono)-----|
|--------------------------------------------------|
---------------------------------------------------|
|--------------------------------------------------|
|--------------------------------------------------|

oh no!

C5 F5
o bene bene bene bene o male male male male
tu non lasciare al caso
quello che vuoi diventare
e allora bene bene bene
e allora male male male
la storia è sempre quella
la puoi prendere o lasciare..
o bene bene bene bene

|---------------------------------------------------------------|
|----------------5------------5--8-----6-6----------------------|
|------------------5--------------------------------------------|
|---------------------5---3-------------------------------------|
|---------------------------------------------------------------|
|---------------------------------------------------------------|

o male male male male
per ogni giorno una mazzata in questa vita eccezionaleah!
ti vada bene bene bene

o vada mal!
e male male
proviamo a ricordare
il sudore per il pane, per il pane..

o bene bene o male male
vale la pena di provare...uh!
Добавлено: 08.03.2012
Другие материалы по этой песне:
  • Аккорды и текст

Страница создана 08.03.2012
http://primanota.ru/pelu-piero/bene-bene-male-male-chords.htm
Привет, Гость.
Предлагаем пройти революционный курс по гитаре.
Подарок от PrimaNota.Ru, забирай!