PrimaNota.ru - самый крупный в мире бесплатный архив песенных текстов, аккордов, табулатур и нот


Pelle Miljoona - Tagdon Rakastella Sinua - таба

Регистрация Запомнить меня
Войти через:  Facebook Google Twitter Vk Yandex Mail.ru

Pelle Miljoona - Tagdon Rakastella Sinua - таба

Печатать
Просмотров: 91
Pelle M. : 
Tab: PLIKK
      EADGbe
Hm
A
G
A7
D
C#

    Intro:
e--|------------------------------------------------------------------------|
b--|-----7-8-7---------------------7-8-7------------------------------------|
G--|-7-9---------9---9-7---7---7-9---------7---7-9b-------------------------|
D--|-----------------------------------------9------------------------------|
A--|------------------------------------------------------------------------|
E--|------------------------------------------------------------------------|

    Verse:
e--|------------------------------------------------------------------------|
b--|-----------------------------------------------2---2---2-2-2-2-2-2-2----|
G--|-----------------------------------------------0---0---0-0-0-0-0-0-0-0--|
D--|-9---9-x-7-7-7-5---5---5-5---7---9---9-x-5-5-5-2---2---2-2-2-2-2-2-2-0--|
A--|-9---9-x-7-7-7-5---5---5-5---7---9---9-x-5-5-5-0---0---0-0-0-0-0-0-0-0--|
E--|-7---7-x-5-5-5-3---3---3-3.--5---7---7-x-3-3-3--------------------------|
   |                                                     -                  |
G--|------------------------------------------------------------------------|
D--|------------------------------------------------------------------------|
A--|-2---2-2-0-0-0-------------------2---2-2--------------------------------|
E--|---------------3---3---3-3---5-----------3-3-3-5---5---5-0---5-5-5-5-0--|

    Chorus:
e--|------------------------------------------------------------------------|
b--|------------------------------------------------------------------------|
G--|-7---7-------7-7-7-0-----------0-7---7-------7-7-7-0--------------------|
D--|-7---7-------7-7-7-0-9-9-9---9-0-7---7-------7-7-7-0-9-9-9---9------9---|
A--|-5---5-------5-5-5-0-9-9-9---9-0-5---5-------5-5-5-0-9-9-9---9------9---|
E--|---------------------7-7-7---7-0---------------------7-7-7---7------7.--|
   |                                                                        |
G--|------------------------------------------------------------------------|
D--|------------------------------------------------------------------------|
A--|-5---5-------5-5-5-0-------------5---5-------5-5-5-0--------------------|
E--|---------------------7-7-7---7-0---------------------7-7-7---7------7.--|

e--|------------------------------------------------------------------------|
b--|------------------------------------------------------------------------|
G--|-7/9-9/11-11/13-13/15-9/11-11/13-13/15-15/17----------------------------|
D--|------------------------------------------------------------------------|
A--|------------------------------------------------------------------------|
E--|------------------------------------------------------------------------|
   |                                                                        |
e--|------------------------------------------------------------------------|
b--|---------------------------2-2-2-2-2-2-2-2-2-2-2-2-2-2-2-2-2-2-2-2-2-2-2|
G--|---------------------------0-0-0-0-0-0-0-0-0-0-0-0-0-0-0-0-0-0-0-0-0-0-0|
D--|-7-7-5---5-5-5-2-2-2-2-2-2-2-2-2-2-2-2-2-2-2-2-2-2-2-2-2-2-2-2-2-2-2-2-2|
A--|-7-7-5---5-5-5-2-2-2-2-2-2-0-0-0-0-0-0-0-0-0-0-0-0-0-0-0-0-0-0-0-0-0-0-0|
E--|-5-5-3---3-3-3-0-0-0-0-0-0----------------------------------------------|
   |                                                                        |
G--|------------------------------------------------------------------------|
D--|------------------------------------------------------------------------|
A--|------------------------------------------------------------------------|
E--|-5-5-3---3-3-3-0-0-0-0-0-0-5-5-5-5-5-5-5-5-5-5-5-5-5-5-5-5-5-5-5-5-5-5-5|

      Bm     A        G      
Paina huules huuliani vasten,
A    Bm     G      A7
kosketa mua joka paikkaan.
      Bm      A       G
Katso syvälle silmiin,
         A    Bm     G
tunnetko tään hetken kauneuden?

D                 Bm
Tahdon rakastella sinua,
D                 Bm
tahdon rakastella sinua,
A     G E     A7
tahdotko sinä minua?

Tunnetko sykken sydämeni,
tunnetko värinän huulillani?
Avaa porttis puutarhaasi,
niin tulen niinkuin sade.

D                 Bm
Tahdon rakastella sinua,
D                 Bm
tahdon rakastella sinua,
A     G E     A7
tahdotko sinä minua?

Älä puhu huomisesta nyt,
hiljaisuus kauneinta musiikkia on.
Kun me rakastelemme,
jumalatkin vaikenee.

D                 Bm
Tahdon rakastella sinua,
D                 Bm
tahdon rakastella sinua,
A     G E     A7
tahdotko sinä minua?

Tablature explanation:

/ = Slide Up
b = Bend
. = Rest
Добавлено: 26.02.2012
Другие материалы по этой песне:
  • Аккорды и текст

Страница создана 26.02.2012
http://primanota.ru/pelle-miljoona/tagdon-rakastella-sinua-chords.htm
Привет, Гость.
Предлагаем пройти революционный курс по гитаре.
Подарок от PrimaNota.Ru, забирай!