PrimaNota.ru - самый крупный в мире бесплатный архив песенных текстов, аккордов, табулатур и нот


Pelican - Strung Up From The Sky - таба, видео

Регистрация Запомнить меня
Войти через:  Facebook Google Twitter Vk Yandex Mail.ru

Pelican - Strung Up From The Sky - таба, видео

Печатать
Просмотров: 53
Artist: Pelican
Song: Strung up from the sky
Tuning: B-E-A-D-F♯-B (Baritone Tuning)

Someone requested a tab for this song, it's not the full song but the main parts of it.

Guitar 1 - intro:
|--------------------------
|------3-5-3--------7-----0
|----4-------4----7-----4--
|--2-----------/5-----0----
|--------------------------
|--------------------------

Guitar 2 - lead: (played on top of guitar 1)
|---------7------------------------------------------------
|--7-7-10---10-8~--7~------------7-----------7---7h8p7-----
|----------------------7---7-7-9---9~--7-7-9---9--------9-7
|----------------------------------------------------------
|----------------------------------------------------------
|----------------------------------------------------------

you can also play that part down starting with A# and go to the higher B string if it's easier for you to play.


Main Riff: (this is actually two guitars but it's hard to differentiate by ear)
|-----------------------------------------
|-----------------------------------------
|-----------------------------------------
|--------------12-------------------------
|--2-2-2-2-2-2/9---9-10\2--2-2-2-2---5---7
|--0-0-0-0-0---------------0-0-0-0-3---5-- 


The rest isn't too difficult just some chords and playing around in some C scales.

Sorry if this isn't 100% accurate. Please post revisions if you have them!
Добавлено: 21.06.2016
Другие материалы по этой песне:
  • Аккорды и текст

Страница создана 21.06.2016
http://primanota.ru/pelican/strung-up-from-sky-chords.htm
Привет, Гость.
Предлагаем пройти революционный курс по гитаре.
Подарок от PrimaNota.Ru, забирай!