PrimaNota.ru - самый крупный в мире бесплатный архив песенных текстов, аккордов, табулатур и нот


Peerens Clement - Dikke Lu - таба, видео

Регистрация Запомнить меня
Войти через:  Facebook Google Twitter Vk Yandex Mail.ru

Peerens Clement - Dikke Lu - таба, видео

Печатать
Просмотров: 75
Artist: Clement Peerens
Song: Dikke Lu
Album: cpex

tabbed by Ben Van de Cruys

Standard tuning

Intro:

Drums and vocals

Intro riff:(let the notes ring)
e---------------------------------------------|
B---------------------------------------------|
G--2--5--8--6---------------------------------|
D--2--5--8--6---------------------------------|
A--0--3--6--4---------------------------------|
E---------------------------------------------|

Verse:
e---------------------------------------------|
B---------------------------------------------|
G---------------------------------------------|
D--0-3-3-3-3--0-3-6-5-3r~---------------------|
A---------------------------------------------|
E---------------------------------------------|

Chorus:
e---------------------------------------------|
B-----------6-6--5----------------------------|
G--2--------6-6--5----------------------------|
D--2------------------------------------------|
A--0------------------------------------------|
E---------------------------------------------|

Break:
e---------------------------------------------|
B---------------------------------------------|
G---------------------------------------------|
D--0-3-3-3-3--0-3-6-5-3-----------------------|
A---------------------------------------------|
E---------------------------------------------|

e---------------------------------------------|
B---------------------------------------------|
G--0-3-3-3-3-0-3-6-5-3------------------------|
D---------------------------------------------|
A---------------------------------------------|
E---------------------------------------------|

e---------------------------------------------|
B---------------------------------------------|
G---------------------------------------------|
D--0-3-3-3-3--0-3-6-5-3-----------------------|
A---------------------------------------------|
E---------------------------------------------|

e---------------------------------------------|
B---------------------------------------------|
G--0-3-3-3-3-0-3-6-5-3------------------------|
D---------------------------------------------|
A---------------------------------------------|
E---------------------------------------------|

Solo:
e--------------3-5--------------3~------------|
B----------3-5--------------3-5---------------|
G------2-4--------------2-4-------------------|
D--2-5--------------2-5-----------------------|
A---------------------------------------------|
E---------------------------------------------|

e--------------3-5--------------3~------------|
B----------3-5--------------3-5---------------|
G------2-4--------------2-4-------------------|
D--2-5--------------2-5-----------------------|
A---------------------------------------------|
E---------------------------------------------|




     
Добавлено: 12.10.2013
Вам также может быть интересно:
Другие материалы по этой песне:
  • Аккорды и текст

Страница создана 11.09.2013
http://primanota.ru/peerens-clement/dikke-lu-chords.htm
Привет, Гость.
Предлагаем пройти революционный курс по гитаре.
Подарок от PrimaNota.Ru, забирай!