PrimaNota.ru - самый крупный в мире бесплатный архив песенных текстов, аккордов, табулатур и нот


Peer Gunt - Years On The Road - таба, видео

Регистрация Запомнить меня
Войти через:  Facebook Google Twitter Vk Yandex Mail.ru

Peer Gunt - Years On The Road - таба, видео

Печатать
Просмотров: 53
Intro/Verse:

acoustic guitar                      play 3 times
E|-2--2--2-2--0--0--0-0--|-3--3--3-3--3--3--3-3--|
B|-3--3--3-3--1--1--1-1--|-0--0--0-0--0--0--0-0--|
G|-2--2--2-2--2--2--2-2--|-0--0--0-0--0--0--0-0--|
D|-0--0--0-0--0--0--0-0--|-0--0--0-0--0--0--0-0--|
A|------------3--3--3-3--|-2--2--2-2--2--2--2-2--|
E|-----------------------|-3--3--3-3--3--3--3-3--|

                                         distortion guitar
E|-2--2--2-2--0--0--0-0--|-3--3--3-3--3----------|
B|-3--3--3-3--1--1--1-1--|-0--0--0-0--0----------|
G|-2--2--2-2--2--2--2-2--|-0--0--0-0--0----------|
D|-0--0--0-0--0--0--0-0--|-0--0--0-0--0----------|
A|------------3--3--3-3--|-2--2--2-2--2--0-2-3---|
E|-----------------------|-3--3--3-3--3--------3-|


Bridge:

E|-------|--------------|
B|-------|--------------|
G|-7-----|-5--5---------|
D|-7-----|-5--5--5------|
A|-5-----|-3--3--3--2-0-|
E|-------|--------------|


Chorus:

E|----3---------------|
B|----3---------------|
G|--------------------|
D|--------------5-----|
A|-2-----0-2-3--3-2-0-|
E|-0------------------|


Verse:

E|----------------------------------|---------------------------------|
B|----------------------------------|---------------------------------|
G|----------------------------------|---------------------------------|
D|-7-7-7-7-7-7-7-7--5-5-5-5-5-5-5-5-|---------------------------------|
A|-5-5-5-5-5-5-5-5--3-3-3-3-3-3-3-3-|-5-5-5-5-5-5-5-5-5-5-5-5-0-2-3---|
E|----------------------------------|-3-3-3-3-3-3-3-3-3-3-3-3-------3-|


Chorus:
E|----3---------------|
B|----3---------------|
G|--------------------|
D|--------------5-----|
A|-2-----0-2-3--3-2-0-|
E|-0------------------|


Bridge2:

E|-------|----------------------|----------------------|
B|-------|----------------------|----------------------|
G|-7-----|-5-5-5-5---7-7-7-7----|-5-5-5-5---7-7-7-7----|
D|-7-----|-5-5-5-5---7-7-7-7----|-5-5-5-5---7-7-7-7----|
A|-5-----|-3-3-3-3---5-5-5-5----|-3-3-3-3---5-5-5-5----|
E|-------|----------------------|----------------------|

E|------------------------------------|
B|------------------------------------|
G|------------------------------------|
D|-5-5-5-5--5-5-5-5--5-5-5-5--5-5-5-5-|
A|-5-5-5-5--5-5-5-5--5-5-5-5--5-5-5-5-|
E|-3-3-3-3--3-3-3-3--3-3-5-5--3-3-3-3-|


Verse(solo):
E|----------------------------------|---------------------------------|
B|----------------------------------|---------------------------------|
G|----------------------------------|---------------------------------|
D|-7-7-7-7-7-7-7-7--5-5-5-5-5-5-5-5-|---------------------------------|
A|-5-5-5-5-5-5-5-5--3-3-3-3-3-3-3-3-|-5-5-5-5-5-5-5-5-5-5-5-5-0-2-3---|
E|----------------------------------|-3-3-3-3-3-3-3-3-3-3-3-3-------3-|

Bridge:
E|-------|--------------|
B|-------|--------------|
G|-7-----|-5--5---------|
D|-7-----|-5--5--5------|
A|-5-----|-3--3--3--2-0-|
E|-------|--------------|

Chorus:
E|----3---------------|
B|----3---------------|
G|--------------------|
D|--------------5-----|
A|-2-----0-2-3--3-2-0-|
E|-0------------------|

Verse: etc..etc...
Добавлено: 21.04.2016
Вам также может быть интересно:
Другие материалы по этой песне:
  • Аккорды и текст

Страница создана 21.04.2016
http://primanota.ru/peer-gunt/years-on-road-chords.htm
Привет, Гость.
Предлагаем пройти революционный курс по гитаре.
Подарок от PrimaNota.Ru, забирай!