PrimaNota.ru - самый крупный в мире бесплатный архив песенных текстов, аккордов, табулатур и нот


Peer Gunt - Wake Me Up - таба, видео

Регистрация Запомнить меня
Войти через:  Facebook Google Twitter Vk Yandex Mail.ru

Peer Gunt - Wake Me Up - таба, видео

Печатать
Просмотров: 92
Уроки эстрадного вокала в Санкт-Петербурге
notation legend:      

~   vibrato
b   bend       


Intro/chorus:

E|---------------|---------------|----------------|-----------------|
B|---------------|---------------|----------------|-----------------|
G|---------------|---------------|----------------|-----------------|
D|---------------|---------------|-5--7-7-5-7--5--|----2-2-----2-2--|
A|-------5--7~~--|-------5--7~~--|-3--5-5-3-5--3--|----0-0-----0-0--|
E|-0--0----------|-0--0----------|----------------|-3b------3b------|


Verse:

E|------------------|------------------|
B|------------------|------------------|
G|-----2---5-2---4--|------------------|
D|-----2---5-2---4--|------------------|
A|-0-0---0-----0----|--3-0----3-0---3--|
E|------------------|------3------3----|


E|-------------------|
B|-------------------|
G|-------------------|
D|-------------------|
A|-2--2-4--2-5--2-4--|
E|-0--0-0--0-0--0-0--|


Bridge:

E|------|------|------|------|-----------------|
B|------|------|------|------|-----------------|
G|--2---|--7---|--2---|--7---|-----------------|
D|--2---|--7---|--2---|--7---|--5--7-7-5-7--5--|
A|--0---|--5---|--0---|--5---|--3--5-5-3-5--3--|
E|------|------|------|------|-----------------|


Solo intro:

4x
E|---------------|
B|---------------|
G|---------------|
D|---------------|
A|-------5--7~~--|
E|-0--0----------|


Solo outro: 

E|---------------------|
B|---------------------|
G|-7--5----------------|
D|-----7-6-5-----------|
A|-----------7-6-5-----|
E|-----------------0---|
Добавлено: 21.04.2016
Другие материалы по этой песне:
  • Аккорды и текст

Страница создана 21.04.2016
http://primanota.ru/peer-gunt/wake-me-up-chords.htm
Привет, Гость.
Предлагаем пройти революционный курс по гитаре.
Подарок от PrimaNota.Ru, забирай!